MUZBANK



A Most Complete Bank Of Music Information

МУЗЫКАЛЬНО-ИНФОРМАЦИОННЫЙ БАНК








    AAmerican Hi Fi • Another Perfect Day (аккорды и текст - chords & lyrics)


    238

    Print

    Видео «Another Perfect Day (American Hi Fi)»

    Видео клипы к песне подбираются автоматически сайтом youtube. Возможны некоторые несоответствия клипов песне.

    ↑ Спрятать рекламу ↑






     
    
    
    b      = full bend
    b(1/2) = half bend
    
    
    
    
    Solo(Version 1)
    
    e|-11---7---14----12h13p12h13p12-7---9---9b---9--11h(1/2)--|
    B|--------7------------------------------------------------|
    G|---------------------------------------------------------| 
    D|---------------------------------------------------------|
    A|---------------------------------------------------------|
    E|---------------------------------------------------------|
    
    e|-11---7---14----12h13p12h13p12-7---9---7---6-7-9-2-------|
    B|--------7------------------------------------------------|
    G|---------------------------------------------------------|
    D|---------------------------------------------------------|
    A|---------------------------------------------------------|
    
    
    
    
    Solo(Version 2)
    
    e|-11---------14--12h13p12h13p12-12---14---14b--14--11h(1/2)--|
    B|------12----------------------------------------------------|
    G|----------11------------------------------------------------| 
    D|------------------------------------------------------------|
    A|------------------------------------------------------------|
    E|------------------------------------------------------------|
    
    e|-11---------14--12h13p12h13p12-12---14---12---11-12-14-11---|
    B|------12----------------------------------------------------|
    G|----------11------------------------------------------------| 
    D|------------------------------------------------------------|
    A|------------------------------------------------------------|
    E|------------------------------------------------------------|
    
    
    alexwany@hotmail.com
     

    Тональность:

    Нашли ошибку?



    Назад
    Рекомендуем посмотреть другие песни исполнителя «American Hi Fi»:

    • Комменты Fb ()
    • Комменты ВК



    Добавить в Избранное Браузера
    Сохранить здесь Очистить


    x

    0


    +
    -

    +
    -

    -

    Авторизация





    Зарегистрироваться

    M

    Дата и время

    • 23:48:08
       

    Социальные ссылки


    Наши приложения

    • Muzbank App Play Market
    • Muzbank Amazon App