MUZBANK



A Most Complete Bank Of Music Information

МУЗЫКАЛЬНО-ИНФОРМАЦИОННЫЙ БАНК

Поиск по сайту







    AAmorphis • Exile Of The Sons Of Uisliu (аккорды и текст - chords & lyrics)


    241

    Print

    Видео «Exile Of The Sons Of Uisliu (Amorphis)»

    Видео клипы к песне подбираются автоматически сайтом youtube. Возможны некоторые несоответствия клипов песне.

    ↑ Спрятать рекламу ↑



    Download


     
    
    
    Version 3.0 - April 22,1997
    
                         Amorphis-Exile of the Sons Uisliu
    			
    Transcribed by Tuukka Eskola		Tune down to C	
    		guitar 1		                                                     
    |-------------------|-------------------------------------------------------------|          
    |-------------------|-------------------------------------------------------------|          
    |-------------------|-------------------------------------------------------------|          
    |-------------------|-------------------------------------------------------------|           
    |-5-----------------|-------7-----7------7-----7---- 7----7----------7---------7--|          
    |-3-----------------|-5555---5555---7777--7777--8888--8888--10101010--10101010----|           
                      P.M |- -|  |- -|  |- -| |- -| |- -| |- -| |- - -  |  |- - - |  
    
    guitar 1
    |-------------------------------|------------------------------------|
    |-------------------------------|------------------------------------|
    |---9---9---9---9---9---9-------|---9---9---9---9---9---9------------|
    |-7---7---7---9---9---9---------|-10--10--10--12--12--12-------------|
    |-------------------------------|------------------------------------|
    |-------------------------------|------------------------------------|
    							                                  
    guitar2
    |-----------------------------------------------|
    |-----------------------------------------------|
    |-----------------------------------------------|
    |-----------------------------------------------|
    |-7-------------9-----------10-------------12---|
    |-5-------------7------------8-------------10---|
    
    guitar 1
    |--------------------------------|--------------------------------|
    |--------------------------------|--------------------------------|
    |--------------------------------|--------------------------------|
    |----------2-0-------------------|----------2-0-------------------|
    |--3p2p0-0-----0-3p2p0-0-2-------|--3p2p0-0-----0-3p2p0-----------|
    |---------------------------3----|-----------------------3-5-3-5--|
    
    guitar 2
    |-----------------|---------------|-----------|
    |-----------------|---------------|-----------|
    |-----------------|---------------|-----------|
    |--2--------------|--------2------|-----------|
    |--0--------------|--5-----0------|--5--7-----|
    |-----------------|--3------------|--3--5-----|
    
    guitar 1
    |------------------------------------|
    |------------------------------------|
    |------------------------------------|
    |------------------------------------|
    |----------5-3-----------------------|
    |-6p5p3-3------3-6p5p3p-1-3----------|				  
    
    |--------------------------------|-------------|-----------|------------|
    |--------------------------------|-------------|-----------|------------|
    |--------------------------------|-------------|-----------|------------|
    |--------------------------------|-------------|-----------|------------|		            	
    |----------5-3-------------------|-5-----------|-3-----5---|-3-5--------|
    |-6p5p3-3-------3-6p5p3-1-3-1-3- |-3-----------|-1-----3---|-1-3--------|
     
    guitar 1&2
    
    |-------------------------|------------------------------|
    |-------------------------|------------------------------|
    |-------------------------|------------------------------|
    |-------------------------|------------------------------| 
    |-2-----------------------|-2----------------------4---5-|
    |-0--------------12slide-|-0-0000-00-0000-00-0000-2---3-|
                              P.M --------------------|   
    |---------------------------------------|----------------------------------------------|
    |---------------------------------------|----------------------------------------------|
    |---------------------------------------|----------------------------------------------|
    |---------------------------------------|----------------------------------------------|
    |-7-9-10-9-12-10-9-7--------------------|-7-9-10-9-12-10h12p10-9-7---------------------|
    |--------------------8-10-12-10-8-10-7--|----------------------------8-10-12-10-8-10-7-|
    
      guitar 1 
    |---------------------------------------------------|
    |---------------------------------------------------|
    |---------------------------------------------------|
    |---------------------------------------------------|
    |-10-12-14-12-15-14h15p14-12-10-10-12-14-12-10-12-9-|
    |---------------------------------------------------|
    
      guitar 2                                              
    |----------------------------------------------------|
    |----------------------------------------------------|
    |----------------------------------------------------|
    |-7-9-10-9-12-10h12p10-9-7---------------------------|
    |----------------------------8-10-12-10-8-10-7-------|
    |----------------------------------------------------|
     
     guitar 1
    |---------------------------------------------------|
    |---------------------------------------------------|
    |---------------------------------------------------|
    |-10-12-14-12-15-14h15p14-12-10-10-12-14-12-10-12-9-|
    |---------------------------------------------------|
    |---------------------------------------------------|
    guitar 1
    |-----------------------------------------------------------------|
    |-----------------------------------------------------------------|
    |-----------12-------12-------12------------12-------12--------12-|
    |-10101010-----1010------1010-----12121212------1212-----1212-----|
    |-----------------------------------------------------------------|
    |-----------------------------------------------------------------|
    P.M- - - - |   |- - |   |- - |   |- - - - |    |- - -|   |- - |     
    		                           
    |--------------------------------|---------------------------------|-----|
    |--------------------------------|---------------------------------|-----|
    |-----------12------12-------12--|------------12------12-------12--|-----|
    |-13131313-----1313-----1313-----|--15151515-----1515-----1515-----|--10-|
    |--------------------------------|---------------------------------|-----|
    |--------------------------------|---------------------------------|-----|
    |- - - - |     |- - |   |- - |    |- - - - |     |- - |   |- - |   
    
    |---------------------------------------------------|-----------|
    |---------------------------------------------------|-----------|
    |---------------------------------------------------|-----------|
    |--5-----------7------------8--------------10-------|-------5---|
    |--3-----------5------------6---------------8-------|-------3---|
    |---------------------------------------------------|-----------|
     
    
    Tuukka Eskola    
    
    espo@edu.lahti.fi
     

    Тональность:

    Нет текста!



    Назад
    Рекомендуем посмотреть другие песни исполнителя «Amorphis»:

    • Комментарии Facebook ()
    • Комментарии ВКонтакте



    Добавить в Избранное Браузера
    Сохранить здесь Очистить


    x

    0


    +
    -

    +
    -

    -

    Авторизация





    Зарегистрироваться

    M

    Дата и время

    • 11:37:40
       

    Социальные ссылки


    Наши приложения

    • Muzbank App Play Market
    • Muzbank Amazon App