MUZBANK



A Most Complete Bank Of Music Information

МУЗЫКАЛЬНО-ИНФОРМАЦИОННЫЙ БАНК

Поиск по сайту







    AAmorphis • Into Hiding (аккорды и текст - chords & lyrics)


    327

    Print

    Видео «Into Hiding (Amorphis)»

    Видео клипы к песне подбираются автоматически сайтом youtube. Возможны некоторые несоответствия клипов песне.

    ↑ Спрятать рекламу ↑



    Download


     Tuning : 1 and Half down
    
    *** time - 0:00
    Part_A
      Repeat it 4 times.
    #||--------------------|---------------------||#
    #||--------------------|---------------------||#
    #||o-------------------|--------------------o||#
    #||o--4-2-----2--------|--------------------o||#
    #||-------5-4---5-4-2--|------------1-2-4----||#
    #||--------------------|--3-0-2-3-3----------||#
     ||   1   2   3   4    |  1   2   3   4      ||
     ||                    |                     ||
     ||                    |                     ||
    #||--------------------|---------------------||#
    #||--------------------|---------------------||#
    #||o-------------------|--------------------o||#
    #||o--4-------7---6----|--------------------o||#
    #||---2-------5---4----|--5-------4----------||#
    #||--------------------|--3-------2----------||#
          1   2   3   4       1   2   3   4     (End of Part_A)
    
    
    *** time - 0:17
    Part_B
      Repeat it 4 times.
                                ______________            ______________
                               |1.2.3.                   |4.
    #||------------------------|------------------------||-------------------||#
    #||------------------------|------------------------||-------------------||#
    #||o-----------------------|-----------------------o||------------------o||#
    #||o-----------------------|-----------------------o||------------------o||#
    #||------------4-----------|--7-5-4-7---------------||--4---------xg-----||#
    #||---0-0-0-0--------------|-----------6------------||-------------------||#
     ||   1        2   3   4   |  1        2   3   4    ||  1   2   3   4    ||
     ||                        |                        ||                   ||
     ||                        |                        ||                   ||
    #||------------------------|------------------------||-------------------||#
    #||------------------------|------------------------||-------------------||#
    #||o-----------------------|-----------------------o||------------------o||#
    #||o-----------------------|-----------------------o||------------------o||#
    #||------------2-------5---|--4---------------------||--4---------xg-----||#
    #||---0-0-0-0--0-------3---|--2---------------------||--2----------------||#
          1        2   3   4      1        2   3   4        1   2   3   4    (end of Part_B)
    
    
    *** time - 0:32
    Part_C
      Repeat it 6 times.
    #||--------------------------------------|-------------------------------------|
    #||--------------------------------------|-------------------------------------|
    #||o-------------------------------------|------------------------------3------|
    #||o----------------------------6---7----|----------------------------|=|=|----|
    #||---------------------7---8------------|--------------------7---8---7h8p7-5--|
    #||---0-0-0-0--0-0-0-0-------------------|--0-0-0-0--0-0-0-0-------------------|
     ||   1        2        3       4        |  1        2        3       4        |
     ||                                      |                                     |
     ||(x5,x6 only)                          |                                     |
    #||--------------------------------------|-------------------------------------|
    #||--------------------------------------|------------------------------3------|
    #||o----------------------------8---9----|----------------------------|=|==|---|
    #||o--------------------9---10-----------|--------------------9---10--9h10p9-7-|
    #||--------------------------------------|-------------------------------------|
    #||---0-0-0-0--0-0-0-0-------------------|--0-0-0-0--0-0-0-0-------------------|
     ||   1        2        3       4        |  1        2        3       4        |
     ||                                      |                                     |
     ||(x1,x2 only)                          |                                     |
    #||--------------------------------------|-------------------------------------|
    #||--------------------------------------|-------------------------------------|
    #||o-------------------------------------|--------------o-/--------------------|
    #||o-------------------------------------|---------------/-o-------------------|
    #||---2---2-2--2---2-2--2---2-2-2---2-2--|-------------------------------------|
    #||---0---0-0--0---0-0--0---0-0-0---0-0--|-------------------------------------|
          1        2        3       4           1        2        3       4
    
    
    |--------------------------------------|--------------------------------------------||#
    |--------------------------------------|-------------3--------------3---------------||#
    |--------------------------------------|-----------|=|==|---------|=|=|------------o||#
    |-----------------------------6---7----|--9---10---9h10p9---7-9---7h9p7------------o||#
    |--------------------7---8-------------|----------------------------------8---------||#
    |--0-0-0-0--0-0-0-0--------------------|--------------------------------------------||#
    |  1        2        3        4        |  1        2          3           4         ||
    |                                      |                                            ||
    |                                      |                                            ||
    |--------------------------------------|--------------3--------------3--------------||#
    |--------------------------------------|-----------|==|==|---------|=|==|-----------||#
    |-----------------------------8---9----|--11--12---11h12p11-9-11---9h11p9----------o||#
    |--------------------9---10------------|----------------------------------10-------o||#
    |--------------------------------------|--------------------------------------------||#
    |--0-0-0-0--0-0-0-0--------------------|--------------------------------------------||#
    |  1        2        3        4        |  1        2          3           4         ||
    |                                      |                                            ||
    |                                      |                                            ||
    |--------------------------------------|--------------------------------------------||#
    |--------------------------------------|--------------------------------------------||#
    |------------------------------------o-//------------------------------------------o||#
    |-------------------------------------//-o-----------------------------------------o||#
    |--------------------------------------|--------------------------------------------||#
    |--------------------------------------|--------------------------------------------||#
       1        2        3        4           1        2          3           4    (End of Part_C)
    
    
    *** time - 1:17
    Part_D
      Repeat it 4 times.
    #||---------------------------------------|--------------------------------------|
    #||---------------------------------------|-----------------3--------------------|
    #||o--------------------4-----------------|---------------|=|=|------------------|
    #||o--2------------2h5------5----4---2----|---------------4h5p4------------------|
    #||---------------------------------------|--5-----------------2--------5--------|
    #||---------------------------------------|--------------------------------------|
     ||   1        2        3        4        |  1        2        3        4        |
     ||                                       |                                      |
     ||(x1,x2 only)                           |                                      |
    #||---------------------------------------|--------------------------------------|
    #||---------------------------------------|--------------------------------------|
    #||o--------------------------------------|--------------------------------------|
    #||o--------------------------------------|--------------------------------------|
    #||---2---2----2---2----2-2-2----2---2-2--|--5---5----5---5----5---5----5---5----|
    #||---0---0----0---0----0-0-0----0---0-0--|--3---3----3---3----3---3----3---3----|
     ||   1        2        3        4        |  1        2        3        4        |
     ||                                       |                                      |
     ||(x3,x4 only)                           |                                      |
    #||---------------------------------------|--------------------------------------|
    #||---------------------------------------|--------------------------------------|
    #||o--------------------------------------|--------------------------------------|
    #||o--------------------------------------|--------------------------------------|
    #||---2-----------------------------------|--5-----------------------------------|
    #||---0-----------------------------------|--3-----------------------------------|
          1        2        3        4           1        2        3        4
    
    
    |--------------------------------------|---------------------------------------||#
    |--------------------------------------|---------------------------------------||#
    |--------------------------------------|-----------------3--------------------o||#
    |--------------------4---2-------------|---------------|=|=|---------5--------o||#
    |--3------------3h5-----------5---3----|--2------------3h5p32------------------||#
    |--------------------------------------|---------------------------------------||#
    |  1        2        3        4        |  1        2        3        4         ||
    |                                      |                                       ||
    |                                      |                                       ||
    |--------------------------------------|---------------------------------------||#
    |--------------------------------------|---------------------------------------||#
    |--------------------------------------|--------------------------------------o||#
    |--2---2----2---2----2-2-2----2---2-2--|--4------------4-------------4--------o||#
    |--0---0----0---0----0-0-0----0---0-0--|--2---2-2--2-2-2----2-2-2-2--2---2-2---||#
    |--------------------------------------|---------------------------------------||#
    |  1        2        3        4        |  1        2        3        4         ||
    |                                      |                                       ||
    |                                      |                                       ||
    |--------------------------------------|---------------------------------------||#
    |--------------------------------------|---------------------------------------||#
    |--------------------------------------|--------------------------------------o||#
    |--2-----------------------------------|--4------------4-------------4--------o||#
    |--0-----------------------------------|--2---2-2--2-2-2----2-2-2-2--2---2-2---||#
    |--------------------------------------|---------------------------------------||#
       1        2        3        4           1        2        3        4    (End of Part_D)
    
    
    *** time - 1:46
    Part_E
    #|----------------|------------------|---------------------|-------------------|
    #|----------------|------------------|---------------------|-------------------|
    #|-----------5----|------------------|----------------5----|-------------------|
    #|-----5----------|---------6-5------|--5h6p5---5----------|----------6-5------|
    #|--3-------------|--8----8----------|--------8------------|--8-----8----------|
    #|----------------|-------------8----|---------------------|--------------8----|
     |  1  2  3  4    |  1  2   3   4    |  1       2  3  4    |  1   2   3   4    |
     |                |                  |                     |                   |
     |                |                  |                     |                   |
    #|----------------|------------------|---------------------|-------------------|
    #|----------------|------------------|---------------------|-------------------|
    #|----------------|------------------|---------------------|-------------------|
    #|----------------|------------------|---------------------|-------------------|
    #|--10-------10---|--6---------------|--8-------------8----|----5---5---5---5--|
    #|--8--------8----|--4---------------|--6-------------6----|--333-333-3-3-3-3--|
        1  2  3  4       1  2   3   4       1       2  3  4       1   2   3   4
    
    
    |----------------|----------------|----------------|--------------------|#
    |----------------|----------------|----------------|--------------------|#
    |--------------o-//---------------|--------------o-//-------------------|#
    |---------------//-o--------------|---------------//-o------------------|#
    |----------------|----------------|----------------|--------------------|#
    |----------------|----------------|----------------|--------------------|#
    |  1  2  3  4    |  1  2  3  4    |  1  2  3  4    |  1   2   3   4     |
    |                |                |                |                    |
    |                |                |                |                    |
    |----------------|----------------|----------------|--------------------|#
    |----------------|----------------|----------------|--------------------|#
    |----------------|----------------|----------------|--------------------|#
    |----------------|----------------|----------------|--------------------|#
    |--10-------10---|--6-------------|--8--------8----|--5-5-5-5-5-5-5-5---|#
    |--8--------8----|--4-------------|--6--------6----|--3-3-3-3-3-3-3-3---|#
       1  2  3  4       1  2  3  4       1  2  3  4       1   2   3   4     (End of Part_E)
    
    
    *** time - 2:00
    Part_F
      Repeat it 4 times.
    #||----------------------|------------------|-----------------|------------------||#
    #||-----------------6----|------------------|-----------------|------------------||#
    #||o--5h6p5--5-----------|---------6-5------|---------------o-//----------------o||#
    #||o-------8-------------|--8----8-----6----|----------------//-o---------------o||#
    #||----------------------|------------------|-----------------|------------------||#
    #||----------------------|------------------|-----------------|------------------||#
     ||   1      2   3  4    |  1  2   3   4    |  1  2   3  4    |  1  2   3  4     ||
     ||                      |                  |                 |                  ||
     ||                      |                  |                 |                  ||
    #||----------------------|------------------|-----------------|------------------||#
    #||----------------------|------------------|-----------------|------------------||#
    #||o---------------------|------------------|-----------------|-----------------o||#
    #||o--3--------3-3--3----|------------------|-----------------|-----------------o||#
    #||---1--------1-1--1----|--4----4-4---4----|--6----6-6--6----|--3----3-3--3-----||#
    #||----------------------|--2----2-2---2----|--4----4-4--4----|--1----1-1--1-----||#
          1      2   3  4       1  2   3   4       1  2   3  4       1  2   3  4    (End of Part_F)
    
    
    *** time - 2:29
    Play Part_D
      Repeat it 4 times.
    
    
    
    *** time - 2:57
    Part_G
      Repeat it 5 times.
    #||-----------------------------|----------------------------|
    #||----_3_---------_3_----------|---_3_----------------------|
    #||o--|---|-------|---|---------|--|---|---------------------|
    #||o--9---|--_3_--9---|--_3_----|--9---|--_3_----------------|
    #||---7---|-|-|-|-7---|-|-|-|---|--7---|-|-|-|---------------|
    #||-------0-0-0-0-----0-0-0-0---|------0-0-0-7-6-------------|
          1     2     3     4          1     2     3     4        
    
    
    |----------------------------|-----------------------------||#
    |---_3_---------_3_----------|---_3_-----------------------||#
    |--|---|-------|---|---------|--|---|---------------------o||#
    |--9---|--_3_--9---|--_3_----|--9---|--_3_----------------o||#
    |--7---|-|-|-|-7---|-|-|-|---|--7---|-|-|-|-5--------------||#
    |------0-0-0-0-----0-0-0-0---|------0-0-0-7----------------||#
       1     2     3     4          1     2     3     4        (End of Part_G)   
    
    
    *** time - 3:38
    Part_H
    #|----------------------------|#
    #|---_3_---------_3_---_3_----|#
    #|--|---|-------|-|-|-|-|-|---|#
    #|--9---|--_3_--7-9^9-7-9^9---|#
    #|--7---|-|-|-|-5-7^7-5-7^7---|#
    #|------0-0-0-0---------------|#
        1     2     3     4       (End of Part_H)
    
    
    === END OF TAB === 

    Тональность:

    Нет текста!



    Назад
    Рекомендуем посмотреть другие песни исполнителя «Amorphis»:

    • Комментарии Facebook ()
    • Комментарии ВКонтакте



    Добавить в Избранное Браузера
    Сохранить здесь Очистить


    x

    0


    +
    -

    +
    -

    -

    Авторизация





    Зарегистрироваться

    M

    Дата и время

    • 03:30:43
       

    Социальные ссылки


    Наши приложения

    • Muzbank App Play Market
    • Muzbank Amazon App