MUZBANK



A Most Complete Bank Of Music Information

МУЗЫКАЛЬНО-ИНФОРМАЦИОННЫЙ БАНК

Поиск по сайту







    AAndrew W K • Party Hard (аккорды и текст - chords & lyrics)


    265

    Print

    Видео «Party Hard (Andrew W K)»

    Видео клипы к песне подбираются автоматически сайтом youtube. Возможны некоторые несоответствия клипов песне.

    ↑ Спрятать рекламу ↑



    Download



     
    
    
    E -
    B --------------------------------------------
    G --------------------------------------------
    D -33333333333333-33333333333333--------------
    A -33333333333333-33333333333333--------------
    D -33333333333333-33333333333333--------------
    
    E --------------------------------------------
    B --------------------------------------------
    G --------------------------------------------
    D -2-2-2-2-2-9-7-7-7-6-6-6-5-5-5-10-9-9-9-10--
    A -2-2-2-2-2-9-7-7-7-6-6-6-5-5-5-10-9-9-9-10--
    D -2-2-2-2-2-9-7-7-7-6-6-6-5-5-5-10-9-9-9-10--
    
    E --------------------------------------------
    B --------------------------------------------
    G --------------------------------------------
    D -7-3-8-3-10-3-10-14-14-7-3-8-3-10-3-10-14-12-
    A --------------10-14-14--------------10-14-12-
    D --------------10-14-14--------------10-14-12--
     

    Тональность:

    Нет текста!



    Назад
    Рекомендуем посмотреть другие песни исполнителя «Andrew W K»:

    • Комментарии Facebook ()
    • Комментарии ВКонтакте



    Добавить в Избранное Браузера
    Сохранить здесь Очистить


    x

    0


    +
    -

    +
    -

    -

    Авторизация





    Зарегистрироваться

    M

    Дата и время

    • 23:42:53
       

    Социальные ссылки


    Наши приложения

    • Muzbank App Play Market
    • Muzbank Amazon App