MUZBANK



A Most Complete Bank Of Music Information

МУЗЫКАЛЬНО-ИНФОРМАЦИОННЫЙ БАНК

Поиск по сайту







    AAndrew W K • Take It Off (аккорды и текст - chords & lyrics)


    264

    Print

    Видео «Take It Off (Andrew W K)»

    Видео клипы к песне подбираются автоматически сайтом youtube. Возможны некоторые несоответствия клипов песне.

    ↑ Спрятать рекламу ↑



    Download


     
    
    
    Andrew WK - Take It Off
    Submitted By: Sqweeky
    EMail: Blindside831@aol.com
    Album: I Get Wet
    Email: john1645@msu.edu
    By: Alpha-Q
    Tuning: Standard (E,A,D,G,b,e) (Low to High)
    
    /  slide up
      slide down
    ... play until you think it is time to move on.
    
    
    NOTE: 
    
    Intro
    
    |--------------------|----|
    |--------------------|----|
    |o-9999-------------o|-9-|
    |o-9999-----9999----o|-9-|
    |--7777...--9999-----|-7-|
    |-----------7777...--|----|
    
    Riff A
    |---------------------|---------------------|
    |---------------------|---------------------|
    |-----4---8-9---------|-----4---8-9---------|
    |-2---4---8-9---7-6-7-|-2---4---8-9---7-6-7-|
    |-2---2---6-7---7-6-7-|-2---2---6-7---7-6-7-|
    |-0-------------5-4-5-|-0-------------5-4-5-|
    
    Riff B
    |------------------------------------|
    |------------------------------------|
    |-4-4-4-4/-9-9-9-9------------------|
    |-4-4-4-4/-9-9-9-9-7-7-7-7-2-2-2-2-|
    |-2-2-2-2/-7-7-7-7-7-7-7-7-2-2-2-2-|
    |-------------------5-5-5-5-0-0-0-0-|
    
    Riff C
    |----------------------------------------------|
    |----------------------------------------------|
    |----------------------------------------------|
    |----------------------------------------------|
    |--------------------7-----7-6---7-------------|
    |-2--2-4--4-5--5-7-7---0-0---------5-5-5/7-7-7-|
    
    Pretty Simple song, but fun to play. It is all in order too. 
    Play all the parts twice through and your done.
    
    
    E-mail me any corrections or comments
     

    Тональность:

    Нет текста!



    Назад
    Рекомендуем посмотреть другие песни исполнителя «Andrew W K»:

    • Комментарии Facebook ()
    • Комментарии ВКонтакте



    Добавить в Избранное Браузера
    Сохранить здесь Очистить


    x

    0


    +
    -

    +
    -

    -

    Авторизация





    Зарегистрироваться

    M

    Дата и время

    • 15:32:17
       

    Социальные ссылки


    Наши приложения

    • Muzbank App Play Market
    • Muzbank Amazon App