MUZBANK



A Most Complete Bank Of Music Information

МУЗЫКАЛЬНО-ИНФОРМАЦИОННЫЙ БАНК

Поиск по сайту







    AAndrew W K • We Want Fun (аккорды и текст - chords & lyrics)


    274

    Print

    Видео «We Want Fun (Andrew W K)»

    Видео клипы к песне подбираются автоматически сайтом youtube. Возможны некоторые несоответствия клипов песне.

    ↑ Спрятать рекламу ↑



    Download



     
    
    
    Tabbed by: Dylan Devoe
    Email: dylandevoe@hotmail.com
    
    Tuning: Standard (EADGBe)
    
    Intro: x2
    e|-12-12-11-11-9-9-7-7-5-5-4-4-2-2-7-7-|
    B|-------------------------------------|
    G|-------------------------------------|
    D|-------------------------------------|
    A|-------------------------------------|
    E|-------------------------------------|
    
    e|---------------------------------------|
    B|---------------------------------------|
    G|---------------------------------------|
    D|-14-14-13-13-11-11-9-9-7-7-6-6-4-4-9-9-| x2
    A|-14-14-13-13-11-11-9-9-7-7-6-6-4-4-9-9-|
    E|-12-12-11-11-9--9--7-7-5-5-4-4-2-2-7-7-|
    
    e|--------------------------------------------------------------|
    B|--------------------------------------------------------------|
    G|--------------------------------------------------------------|
    D|-2-2-2-2-7-6-7-2-2-2-2-7-6-7-11-11-11-9-7-6-7-xx9-xx9-xx9-xx9-| x2
    A|-2-2-2-2-7-6-7-2-2-2-2-7-6-7-11-11-11-9-7-6-7-xx9-xx9-xx9-xx9-|
    E|-0-0-0-0-5-4-5-0-0-0-0-5-4-5-9--9--9--7-5-4-5-xx7-xx7-xx7-xx7-|
    
    Fill
    e|-12-12-11-11-9-9-7-7-|
    B|---------------------|
    G|---------------------|
    D|---------------------|
    A|---------------------|
    E|---------------------|
    
    Verse:
    e|---------------------------------------|
    B|---------------------------------------|
    G|---------------------------------------|
    D|-14-14-13-13-11-11-9-9-7-7-6-6-4-4-9-9-| x4
    A|-14-14-13-13-11-11-9-9-7-7-6-6-4-4-9-9-|
    E|-12-12-11-11-9--9--7-7-5-5-4-4-2-2-7-7-|
    
    Pre-Chorus:
    e|---------------------------------------|
    B|---------------------------------------|
    G|---------------------------------------|
    A|-7---9---2---6---7---9---2---6---7---9-|
    D|-7---9---2---6---7---9---2---6---7---9-|
    E|-5---7---0---4---5---7---0---4---5---7-|
    
    e|---------------------------------------------|
    B|---------------------------------------------|
    G|---------------------------------------------|
    D|-14-14-13-13-11-11-9-9-7-~~~-xx9-xx9-xx9-xx9-|
    A|-14-14-13-13-11-11-9-9-7-~~~-xx9-xx9-xx9-xx9-|
    E|-12-12-11-11-9--9--7-7-5-~~~-xx7-xx7-xx7-xx7-|
    
    Chorus:
    e|--------------------------------------------------------------|
    B|--------------------------------------------------------------|
    G|--------------------------------------------------------------|
    D|-2-2-2-2-7-6-7-2-2-2-2-7-6-7-11-11-11-9-7-6-7-xx9-xx9-xx9-xx9-|
    A|-2-2-2-2-7-6-7-2-2-2-2-7-6-7-11-11-11-9-7-6-7-xx9-xx9-xx9-xx9-|
    E|-0-0-0-0-5-4-5-0-0-0-0-5-4-5-9--9--9--7-5-4-5-xx7-xx7-xx7-xx7-|
    
    e|-----------------------------------------------------|
    B|-----------------------------------------------------|
    G|-----------------------------------------------------|
    D|-2-2-2-2-7-6-7-2-2-2-2-7-6-7-14-14-13-13-11-11-9-9-7-|
    A|-2-2-2-2-7-6-7-2-2-2-2-7-6-7-14-14-13-13-11-11-9-9-7-|
    E|-0-0-0-0-5-4-5-0-0-0-0-5-4-5-12-12-11-11-9--9--7-7-5-|
    
    Fill:
    e|---------------------------------------|
    B|---------------------------------------|
    G|---------------------------------------|
    D|-14-14-13-13-11-11-9-9-7-7-6-6-4-4-9-9-| x2
    A|-14-14-13-13-11-11-9-9-7-7-6-6-4-4-9-9-|
    E|-12-12-11-11-9--9--7-7-5-5-4-4-2-2-7-7-|
    
    Verse:
    e|---------------------------------------|
    B|---------------------------------------|
    G|---------------------------------------|
    D|-14-14-13-13-11-11-9-9-7-7-6-6-4-4-9-9-| x2
    A|-14-14-13-13-11-11-9-9-7-7-6-6-4-4-9-9-|
    E|-12-12-11-11-9--9--7-7-5-5-4-4-2-2-7-7-|
    
    Pre-Chorus:
    e|---------------------------------------|
    B|---------------------------------------|
    G|---------------------------------------|
    A|-7---9---2---6---7---9---2---6---7---9-|
    D|-7---9---2---6---7---9---2---6---7---9-|
    E|-5---7---0---4---5---7---0---4---5---7-|
    
    e|---------------------------------------------|
    B|---------------------------------------------|
    G|---------------------------------------------|
    D|-14-14-13-13-11-11-9-9-7-~~~-xx9-xx9-xx9-xx9-|
    A|-14-14-13-13-11-11-9-9-7-~~~-xx9-xx9-xx9-xx9-|
    E|-12-12-11-11-9--9--7-7-5-~~~-xx7-xx7-xx7-xx7-|
    
    Chorus:
    e|--------------------------------------------------------------|
    B|--------------------------------------------------------------|
    G|--------------------------------------------------------------|
    D|-2-2-2-2-7-6-7-2-2-2-2-7-6-7-11-11-11-9-7-6-7-xx9-xx9-xx9-xx9-|
    A|-2-2-2-2-7-6-7-2-2-2-2-7-6-7-11-11-11-9-7-6-7-xx9-xx9-xx9-xx9-|
    E|-0-0-0-0-5-4-5-0-0-0-0-5-4-5-9--9--9--7-5-4-5-xx7-xx7-xx7-xx7-|
    
    e|---------------------------------------------------------|
    B|---------------------------------------------------------|
    G|---------------------------------------------------------|
    D|-2-2-2-2-7-6-7-2-2-2-2-7-6-7-14-14-13-13-11-11-9-9-7-2-2-|
    A|-2-2-2-2-7-6-7-2-2-2-2-7-6-7-14-14-13-13-11-11-9-9-7-2-2-|
    E|-0-0-0-0-5-4-5-0-0-0-0-5-4-5-12-12-11-11-9--9--7-7-5-0-0-|
    
    ~Bridge~
    
    Fill:
    e|---------------------------------------|
    B|---------------------------------------|
    G|---------------------------------------|
    D|-14-14-13-13-11-11-9-9-7-7-6-6-4-4-9-9-| x3
    A|-14-14-13-13-11-11-9-9-7-7-6-6-4-4-9-9-|
    E|-12-12-11-11-9--9--7-7-5-5-4-4-2-2-7-7-|
    
    e|-----------------------------------|
    B|-----------------------------------|
    G|-----------------------------------|
    D|-14-14-13-13-11-11-9-9-7-7-~~~-2-2-|
    A|-14-14-13-13-11-11-9-9-7-7-~~~-2-2-|
    E|-12-12-11-11-9--9--7-7-5-5-~~~-0-0-|
    
    THE END...Bahahahaha! Now Go Play It And Get The Hell Off The Computer!
     

    Тональность:

    Нет текста!



    Назад
    Рекомендуем посмотреть другие песни исполнителя «Andrew W K»:

    • Комментарии Facebook ()
    • Комментарии ВКонтакте



    Добавить в Избранное Браузера
    Сохранить здесь Очистить


    x

    0


    +
    -

    +
    -

    -

    Авторизация





    Зарегистрироваться

    M

    Дата и время

    • 13:16:29
       

    Социальные ссылки


    Наши приложения

    • Muzbank App Play Market
    • Muzbank Amazon App