MUZBANK



A MOST COMPLETE BANK OF MUSIC INFORMATION

МУЗЫКАЛЬНО-ИНФОРМАЦИОННЫЙ БАНК







    AAngelwitch • Loser (аккорды и текст - chords & lyrics)


    295

    Print

    Видео «Loser (Angelwitch)»

    Видео клипы к песне подбираются автоматически сайтом youtube. Возможны некоторые несоответствия клипов песне.

    ↑ Спрятать рекламу ↑





     
    
    
    LOSER  by  ANGELWITCH
    
    Intro/Chorus
    ---------------------------------------------|
    ---------------------------------------------|
    -7-777---------5--3-5-7--777-------5--3-5-3--|
    --------3-333----------------3-333-----------|
    
    Verse
    -----------------------------------------------|
    -----------------------------------------------|
    -7-77-77-77-77-77-77-77-77-77-77-77-7-------2--|
    ---------------------------------------3--3----|
    
    Pre Chorus
    ----------------------------------------|-------------|---------|
    ----------------------------------------|-------------|---------|
    -3-33-33-33-3-5-55-55-55-5-2-22-22-22-2-|-3-33-33-33--|-0-2-3-2-|
    ----------------------------------------|-------------|---------|
    
    I might be wrong about the last note on the chorus...
    
    /metal_up_your_ass@2di4.com
     

    Тональность:

    Это должно быть в ТОП-листе! - Топ-лист композиций



    Назад
    Рекомендуем посмотреть другие песни исполнителя «Angelwitch»:

    • Комменты Fb ()
    • Комменты ВК



    Добавить в Избранное Браузера
    Сохранить здесь Очистить


    x

    0


    +
    -

    +
    -

    -

    Авторизация





    Зарегистрироваться

    M

    Дата и время

    • 09:52:46
       

    Социальные ссылки


    Наши приложения

    • Muzbank App Play Market
    • Muzbank Amazon App