MUZBANK



A Most Complete Bank Of Music Information

МУЗЫКАЛЬНО-ИНФОРМАЦИОННЫЙ БАНК

Поиск по сайту







    AAngelwitch • Sourecers (аккорды и текст - chords & lyrics)


    216

    Print

    Видео «Sourecers (Angelwitch)»

    Видео клипы к песне подбираются автоматически сайтом youtube. Возможны некоторые несоответствия клипов песне.

    ↑ Спрятать рекламу ↑



    Download


     
    
    
    A N G E L W I T C H
                    S O U R C E R E R S
    
    Verse
    ---------------------|
    ---------------------|
    ---------------------|
    --0-------1----------|
    
    Chorus 1                  End
    -------------------|----------------|
    -------------------|----------------|
    -----2-3-----------|------/7----7--|
    -0--0-----3-2-32---|-0--------------|
    
    
    Chorus 2             End
    -------------------|-----|
    -------------------|-----|
    -----2-3-----------|-----|
    -0--0-----3-2-32---|-0---|
    
    Pre-Solo
    -----------|---7h9p7----7h9p7--------|
    -----------|---------9--------9p8p7--|
    ---5--5h7--|-------------------------|
    -7---------|-------------------------|
     x3
    
    Solo
    ------------------------|
    ------------------------|
    -7-7777--7777---5--5h7--|
    --------------7---------|
    The bass just kind of
    improvise around this
    riff, but it sounds
    perfect with just this riff.
    
    Ending
    --------------|------------|
    --------------|------------|
    -7----10-10---|-7---7---7--|
    --------------|-----0---0--|
                        Yeah
                            Yeah
    
    
    /metal_up_your_ass@2die4.com
     

    Тональность:

    Нет текста!



    Назад
    Рекомендуем посмотреть другие песни исполнителя «Angelwitch»:

    • Комментарии Facebook ()
    • Комментарии ВКонтакте



    Добавить в Избранное Браузера
    Сохранить здесь Очистить


    x

    0


    +
    -

    +
    -

    -

    Авторизация





    Зарегистрироваться

    M

    Дата и время

    • 00:56:20
       

    Социальные ссылки


    Наши приложения

    • Muzbank App Play Market
    • Muzbank Amazon App