MUZBANK



A Most Complete Bank Of Music Information

МУЗЫКАЛЬНО-ИНФОРМАЦИОННЫЙ БАНК

Поиск по сайту







    AAnimals • Good Times (аккорды и текст - chords & lyrics)


    388

    Print

    Видео «Good Times (Animals)»

    Видео клипы к песне подбираются автоматически сайтом youtube. Возможны некоторые несоответствия клипов песне.

    ↑ Спрятать рекламу ↑



    Download



    intro
    E|------------------7--10--8-----7--8--7-------------------|
    B|--------7--8--10------------------------10--8--10--8-----|
    G|--7--9-----------------------------------------------(7)-|
    D|---------------------------------------------------------|
    A|---------------------------------------------------------|
    E|---------------------------------------------------------|
    
    verses 1,2
                             C
    when I think of all the good times that
           D                G
    ive wasted having good times
    when I think of all the good times
    thats been wasted having good times
    
    strings
    E|-----------|
    B|-----------|
    G|-----------|
    D|-----------|
    A|-----------|
    E|-2s3-2s3---|
    
    pre choruss
    
       Em                D
    (1)when I was        drinking     i should have been    thinking
    (2)all of my         lying        i remember her        crying
    (3)useless           talking      all of that           walking
    
       when I was     fighting     i could have done the right thing
       my useless     talking      i could have been     walking
       all of my      sinning      i could have been     winning
    
       all of that        boozing      i was really          losing
       instead of      complaining     i could have been     gaining
       i had it to      easy         and its a             beginning
    
    Em
    good times
    
    stings
    E|------------------|
    B|------------------|
    G|------------------|
    D|-2-----0---2--2---|
    A|----2-------------|
    E|------------------|
    
    Em
    good times
    
    interlude (w/verse chords)
    
    yeah here we all are
    having a jolly good time
    everything is working out fine
    
       G     Em
    E|---------|
    B|---------|
    G|---------|
    D|---------|
    A|---------|
    E|-3-2-1-0-|
    
    outro
       Em           G
    good times said good times
    talking about   good times
    

    Тональность:

    Нет текста!



    Назад
    Рекомендуем посмотреть другие песни исполнителя «Animals»:

    • Комментарии Facebook ()
    • Комментарии ВКонтакте



    Добавить в Избранное Браузера
    Сохранить здесь Очистить


    x

    0


    +
    -

    +
    -

    -

    Авторизация





    Зарегистрироваться

    M

    Дата и время

    • 18:47:19
       

    Социальные ссылки


    Наши приложения

    • Muzbank App Play Market
    • Muzbank Amazon App