MUZBANK



A Most Complete Bank Of Music Information

МУЗЫКАЛЬНО-ИНФОРМАЦИОННЫЙ БАНК

Поиск по сайту







    AAnti-flag • Free Nation (аккорды и текст - chords & lyrics)


    148

    Print

    Видео «Free Nation (Anti-flag)»

    Видео клипы к песне подбираются автоматически сайтом youtube. Возможны некоторые несоответствия клипов песне.

    ↑ Спрятать рекламу ↑



    Download



     
    
    
    Artist: Anti-Flag
    Album: A New Kind of Army
    Song : Free Nation?
    Tabbed By: JustnHav
    
    ///- slide 
    p- palm mute 
    
    Intro 
    e|-/-/-/---------------------------------------------------------------------| 
    B|-/-/-/---------------------------------------------------------------------| 
    G|-/-/-/-------10-8-7--------------------------------------------------------| 
    D|-/-/-/---8-8--*-*-*-1010101010101010---------------------------------------| 
    A|-/-/-/---*-*--8-6-5-1010101010101010---------------------------------------| 
    E|-/-/-/---6-6---------8-8-8-8-8-8-8-8---------------------------------------| 
    
    Verse 
    e|---------------------------------------| 
    B|---------------------------------------| 
    G|-------10-8-7--------------------------| 
    D|---8-8--*-*-*-1010101010101010---------| 
    A|---*-*--8-6-5-1010101010101010---------| 
    E|---6-6---------8-8-8-8-8-8-8-8---------| 
    
    Chorous 
    e|---------------------------------------------------------------------------| 
    B|---------------------------------------------------------------------------| 
    G|-8-8-8-8-------------------------------------------------------------------| 
    D|-8-8-8-8-8-8-8-8-1010-1010-1010-1010---------------------------------------| 
    A|-6-6-6-6-8-8-8-8-1010-1010-1010-1010---------------------------------------| 
    E|---------6-6-6-6--8-8--8-8--8-8--8-8---------------------------------------| 
    
    Solo 
    e|---------------------------------------------------------------------------| 
    B|---------------------------------------------------------------------------| 
    G|---------------------------------------------------------------------------| 
    D|-5--5-6--------5-6------5-6------------------------------------------------| 
    A|-3--------8-8------6-6------6-6-6-6----------------------------------------| 
    E|----------6-6------4-4------4-4-4-4----------------------------------------| 
    
    e|---------------------------------------------------------------------------| 
    B|---------------------------------------------------------------------------| 
    G|-----------------------------------------5-5-5-5--7-7-7-7--8-8-8-8---------| 
    D|--5-5-5-5--------------------------------*-*-*-*--*-*-*-*--*-*-*-*---------| 
    A|--3-3-3-3--8-8-8-8--6-6-6-6-6-6-6--------3-3-3-3--5-5-5-5--6-6-6-6---------| 
    E|-----------6-6-6-6--4-4-4-4-4-4-4------------------------------------------| 
    
    Outro 
    e|---------------------------------------------------------------------------| 
    B|---------------------------------------------------------------------------| 
    G|--------8-8-8-8------------------------------------------------------------| 
    D|-/-/-/--8-8-8-8-8-8-8-8-1010--1010--1010--1010-----------------------------| 
    A|-/-/-/--6-6-6-6-8-8-8-8-1010--1010--1010--1010-----------------------------| 
    E|-/-/-/----------6-6-6-6--8-8---8-8---8-8---8-8-----------------------------| 
    
    e|---------------------------------------------------------------------------| 
    B|---------------------------------------------------------------------------| 
    G|-8-8-8-8-----------8-8-8---8-8-8-------------------------------------------| 
    D|-8-8-8-8-8-8-8-8---8-8-8---8-8-8-------------------------------------------| 
    A|-6-6-6-6-8-8-8-8---6-6-6---6-6-6-------------------------------------------| 
    E|---------6-6-6-6-----------------------------------------------------------| 
    p p p p 
    play this till the end 
    e|---------------------------------------------------------------------------| 
    B|---------------------------------------------------------------------------| 
    G|-------------------8-8-8--8-8-8--------------------------------------------| 
    D|-8-8-8-8-10101010--8-8-8--8-8-8--------------------------------------------| 
    A|-8-8-8-8-10101010--6-6-6--6-6-6--------------------------------------------| 
    E|-6-6-6-6--8-8-8-8----------------------------------------------------------| 
    p p p p
     

    Тональность:

    Нет текста!



    Назад
    Рекомендуем посмотреть другие песни исполнителя «Anti-flag»:

    • Комментарии Facebook ()
    • Комментарии ВКонтакте



    Добавить в Избранное Браузера
    Сохранить здесь Очистить


    x

    0


    +
    -

    +
    -

    -

    Авторизация





    Зарегистрироваться

    M

    Дата и время

    • 19:30:00
       

    Социальные ссылки


    Наши приложения

    • Muzbank App Play Market
    • Muzbank Amazon App