MUZBANK



A Most Complete Bank Of Music Information

МУЗЫКАЛЬНО-ИНФОРМАЦИОННЫЙ БАНК

Поиск по сайту







    AAnti-flag • Right To Choose (аккорды и текст - chords & lyrics)


    149

    Print

    Видео «Right To Choose (Anti-flag)»

    Видео клипы к песне подбираются автоматически сайтом youtube. Возможны некоторые несоответствия клипов песне.

    ↑ Спрятать рекламу ↑



    Download



     
    
    
    -----------------------------------------------------------------------
                      Anti-Flag – The Right to Choose
    -----------------------------------------------------------------------
    
    Intro/Chorus Gtr. 1 
    e----------------------------------------------------------------------|
    B--5-4-5-4-5-4-5-4-5-4-5-4-0--5-4-5-4-5-4-5-4-5-4-5-4-7----------------|
    G----------------------------------------------------------------------|
    D----------------------------------------------------------------------|
    A----------------------------------------------------------------------|
    E----------------------------------------------------------------------|
    
    Intro/Chorus Gtr. 2
    e----------------------------------------------------------------------|
    B----------------------------------------------------------------------|
    G--6----6-9-11--6-----------6----6-9-11--6-----------------------------|
    D--6-7--6-9-11--6-7--9-7-6--6-7--6-9-11--6-7--9-7-6--------------------|
    A--4-7--4-7--9--4-7--9-7-6--4-7--4-7--9--4-7--9-7-6--------------------|
    E----5------------5--7-5-4----5------------5--7-5-4--------------------|
    
    Verse
    e----------------------------------------------------------------------|
    B----------------------------------------------------------------------|
    G--6-6--6--6--9-9--9--9------------------------------------------------|
    D--6-6--6--6--9-9--9--9--9-9--9--9--7-7--7--7--------------------------|
    A--4-4--4--4--7-7--7--7--9-9--9--9--7-7--7—-7--------------------------|
    E------------------------7-7--7--7--5-5--5--5--------------------------|X2
    
    Pre-Chorus Gtr. 1 / Gtr. 2 plays Verse
    e----4-0-7-4-0-9-9-7-4-0-4-2-------------------------------------------|
    B--2-------------------------5-4---------------------------------------|
    G----------------------------------------------------------------------|
    D----------------------------------------------------------------------|
    A----------------------------------------------------------------------|
    E----------------------------------------------------------------------|
    
    Bridge Gtr. 1
    e------44----|-740-740-740-54--740-740-7497-55-55-55-55----------------|
    B--2----2----|----2---2---2--45---2---2--------------------------------|
    G------------|---------------------------------------------------------|
    D------------|---------------------------------------------------------|
    A------------|---------------------------------------------------------|
    E------------|---------------------------------------------------------|
    	
    Bridge Gtr. 2
    e------------|---------------------------------------------------------|
    B------------|---------------------------------------------------------|
    G--6----6----|--6-----4--2--6-----4--2-2--2-2--2-2--2-2-2-2------------|
    D--6----6----|--6--2--4--2--6--2--4--2-2--2-2--2-2--0-0-0-0------------|
    A--4----4----|--4--2--2--0--4--2--2--0-0--0-0--0-0--0-0-0-0------------|
    E------------|-----0-----------0---------------------------------------|
                 pm--------------------|
    
    Pre Chorus 2 Gtr. 1 / Gtr. 2 plays Verse
    e---------------------------740740747407407474074074-------------------|
    B--2-54540-54547-54549-5454--------------------------------------------|
    G----------------------------------------------------------------------|
    D-----------------------------------------------------7-7-7-7-7-7-777--|
    A-----------------------------------------------------7-7-7-7-7-7-777--|
    E-----------------------------------------------------5-5-5-5-5-5-555--|
    
    Intro
    Verse
    Pre-chorus 1
    Chorus
    Verse
    Pre-chorus 1
    Chorus
    Bridge
    Pre-Chorus 2
    Chorus
     

    Тональность:

    Нет текста!



    Назад
    Рекомендуем посмотреть другие песни исполнителя «Anti-flag»:

    • Комментарии Facebook ()
    • Комментарии ВКонтакте



    Добавить в Избранное Браузера
    Сохранить здесь Очистить


    x

    0


    +
    -

    +
    -

    -

    Авторизация





    Зарегистрироваться

    M

    Дата и время

    • 23:39:27
       

    Социальные ссылки


    Наши приложения

    • Muzbank App Play Market
    • Muzbank Amazon App