MUZBANK



A Most Complete Bank Of Music Information

МУЗЫКАЛЬНО-ИНФОРМАЦИОННЫЙ БАНК

Поиск по сайту







    AAnti-flag • What You Dont Know (аккорды и текст - chords & lyrics)


    206

    Print

    Видео «What You Dont Know (Anti-flag)»

    Видео клипы к песне подбираются автоматически сайтом youtube. Возможны некоторые несоответствия клипов песне.

    ↑ Спрятать рекламу ↑



    Download


     
    
    
    Album: A New Kind of Army
    Artist: Anti-Flag
    Song: What You Dont Know
    Tabbed By: JustnHav
    
    Intro (yeah the intro is fun)
    1---------4-4-4-0-0-2-2-2-----------once you play that
    2---2-2-2-----------------4-4-4-0-0-twice 
    3-----------------------------------
    4-----------------------------------
    5-----------------------------------
    6-----------------------------------
    
    drop the last two notes and add
    1---7-7-
    
    Verse
    1-----------
    2-----------
    3-----------
    4---6-----4-
    5---4--7--2-
    6------5----
    
    Chorus  .=only play that note once
    1-----------------------
    2-----------------------
    3-----------------------
    4---6-----4-----------4-
    5---4--6--2--4--7--4--2-
    6------4-----2--5--2----
           .     .     .
    
    Bridge
    1------9-9-9-9----------9-9-9-9-----------------------
    2---------------9-9-9-9----------9-9-9-9-last timeplay
    3-----------------------------------------------------
    4-----------------------------------------------------
    5---7------------------------------------9999-9999-99-
    6---5------------------------------------7777-7777-77-
    
    So you hate me??? e mail me at JustnHav@aol.com
     

    Тональность:

    Нет текста!



    Назад
    Рекомендуем посмотреть другие песни исполнителя «Anti-flag»:

    • Комментарии Facebook ()
    • Комментарии ВКонтакте



    Добавить в Избранное Браузера
    Сохранить здесь Очистить


    x

    0


    +
    -

    +
    -

    -

    Авторизация





    Зарегистрироваться

    M

    Дата и время

    • 11:14:43
       

    Социальные ссылки


    Наши приложения

    • Muzbank App Play Market
    • Muzbank Amazon App