MUZBANK



A Most Complete Bank Of Music Information

МУЗЫКАЛЬНО-ИНФОРМАЦИОННЫЙ БАНК

Поиск по сайту







    AArch Enemy • Fields Of Desolation (аккорды и текст - chords & lyrics)


    280

    Print

    Видео «Fields Of Desolation (Arch Enemy)»

    Видео клипы к песне подбираются автоматически сайтом youtube. Возможны некоторые несоответствия клипов песне.

    ↑ Спрятать рекламу ↑



    Download


    ARCH ENEMY - FIELDS OF DESOLATION
                             From the Album BLACK EARTH
                             Copyright 1996 W.A.R (WRONG AGAIN RECORDS)
                             Version 2.0 - AUGUST 2001
    
    Transcribed by: Scott King
    
    
    
    .  - palm mute                  /  - slide up to
      - slide down to              ~  - vibrato
    h  - hammer on                  b  - bend
    p  - pull off                        Suffixes for bend
    ph - pinch harmonic                      f - full bend    h - half bend
    *  - see comment                         r - release      t - tap bend
    X  - percussion mute                     ~ - vibrato bend
    @  - slight palm mute           () - ghost note, sustained note
    
    Tune Down 2.5 steps to B
    
    FIELDS OF DESOLATION
    
    Riff 1  Play 2 times
    |----------------------------------------------------------------------|
    |----------------------------------------------------------------------|GTRS
    |----------------------------------------------------------------------|1&2
    |----------------------------------------------------------------------|
    |----2-----2--------9-----9--------2-----2--------9-----9--------2-----|
    |-0--0-000-0-000-7--7-777-7-777-0--0-000-0-000-7--7-777-7-777-0--0-000-|
    |      ...   ...      ...   ...      ...   ...      ...   ...      ...
    |
    |
    |------------------------------------------------------|
    |------------------------------------------------------|END
    |------------------------------------------------------|RIFF
    |------------------------------------------------------| 1
    |-2-------10----10----9-----9--------9-----------------|
    |-0-000-8--8-888-8-7--7-777-7-777-7--7-777--7---5---3--|
        ...      ...        ...   ...      ...
    
    Riff 2  Play 2 Times
    |-------------------------------0----------0-------|
    |---------------------------------0----------0-----|GTRS
    |-----------------------------------3----------3---|1&2
    |--------------------------------------------------|
    |----4---5-------4---5-------2----------2----------|
    |-2~--222-222-2~--222-222----0----------0----------|
          ... ...     ... ...
    
    Play Riff 1  2 Times
    Play Riff 2  2 Times
    
    Riff 3  Play 2 Times
    |--------------------------------------------------------------|
    |--------------------------------------------------------------|GTR
    |----9--11--12------12--11--9------11--12--14------14--12--13--| 1
    |-9-------------10-------------12--------------13--------------|
    |--------------------------------------------------------------|
    |--------------------------------------------------------------|
    |
    |
    |--------------------------------------------------------------|
    |--------------------------------------------------------------|GTR
    |-9----------------------------12------------------------------| 2
    |-9-------------10-------------12---------------9--------------|
    |-7-------------10-------------10---------------9--------------|
    |---------------8-------------------------------7--------------|
    
    |----------------------------------------------|
    |----------------------------------------------|GTR
    |----9--11--12------12--11--9--8~--9-8---------| 1
    |-9-------------10---------------------10--9~--|
    |----------------------------------------------|
    |----------------------------------------------|
    |
    |
    |----------------------------------------------|
    |----------------------------------------------|GTR
    |-9--------------------------------------------| 2
    |-9-------------10-------------9-----------9---|
    |-7-------------10-------------9-----------9---|
    |---------------8--------------7-----------7---|
    			  	      END RIFF 3
    
    
    Riff 4  Play 1 Time
    |-----------------------------------------------------------------------|
    |-----------------------------------------------------------------------|GTR
    |-----------5-----6-----------------------6-----7---8-------------6-----| 1
    |--7---8----5-----6-----7-----------------6-----------------------6-----|
    |-----------3--7--4---------8----7-----7--4--------------7-----7--4-----|
    |--------------5-----------------5---5-5-----------------5---5-5--------|
    |				             .   		             .
    |
    |-----------------------------------------------------------------------|
    |-----------------------------------------------------------------------|GTR
    |--7--------5-----6-----7-----------------6-----7-----------------6-----| 2
    |--7---8----5-----6-----7-----------------6-----7----8------------6-----|
    |--5---5----3--7--4-----5---8----7-----7--4-----5----5---7-----7--4-----|
    |--------------5------------6----5---5-5-----------------5---5-5--------|
    				             .			       .
    
    |-----------------------|
    |-----------------------|GTR
    |-------------------p.h.| 1
    |--7-----------------4--|
    |------8----7-----7-----|
    |-----------5---5-5-----|
    |		    .	|
    |			|
    |-----------------------|
    |-----------------------|GTR
    |--7-----------------6--| 2
    |--7-----------------6--|
    |--5---8----7-----7--4--|
    |------6----5---5-5-----|
                    .
    	       END RIFF 4
    
    Play Riff 1   2 Times
    Play Riff 2   2 Times
    Play Riff 3   2 Times
    Play Riff 4   1 Time
    Play Riff 1   2 Times
    Play Riff 2   2 Times
    Play Riff 3   2 Times
    Play Riff 4   1 Time
    
    Rhythm over solo til fade
    |---------------------------------------------------------|
    |---------------------------------------------------------|
    |---------------------------------------------------------|
    |---------------------------------------------------------|
    |-7-777-777-777---------------5-555-555-555---------------|
    |---------------5-555-555-555---------------3-333-333-333-|
    | . ... ... ... . ... ... ... . ... ... ... . ... ... ...
    |
    |
    |-------------------------------------------------------------|
    |-------------------------------------------------------------|
    |-------------------------------------------------------------|
    |-------------------------------------------------------------|
    |-3-333-333-333---------------2-222-222-222-------------------|
    |---------------2-222-222-222---------------5-555-3-333-2-222-|
      . ... ... ... . ... ... ... . ... ... ... . ... . ... . ...
     
    
    
    
    [1996] Black Earth
    
    On the fields of desolation
    We are all alone
    Crying in each others arms
    In fear of the unknown
    Feelings of uncertainty
    We are all doomed
    To live in solitude
    And never ending gloom
    
    On the fields of desolation
    Eternal life or termination
    Why don't you cover me
    I need your sanctuary
    This sea I'm drowning in
    Might be where the end begins
    In times of grief and sadness
    We're searching for the light
    Seek for a place of safety
    Seek for a place to hide
    God turned his back on man
    In divine resignation
    Torn between two believes
    Eternal life or termination?
    
    As we drown in darkness
    Weak and depraved
    On our final journey
    Too late to be saved
    We've gone through places
    Where the cold wind blows
    Is this the end of it all
    I don't know, I don't know

    Тональность:

    Нет текста!



    Назад
    Рекомендуем посмотреть другие песни исполнителя «Arch Enemy»:

    • Комментарии Facebook ()
    • Комментарии ВКонтакте



    Добавить в Избранное Браузера
    Сохранить здесь Очистить


    x

    0


    +
    -

    +
    -

    -

    Авторизация





    Зарегистрироваться

    M

    Дата и время

    • 10:55:52
       

    Социальные ссылки


    Наши приложения

    • Muzbank App Play Market
    • Muzbank Amazon App