MUZBANK



A Most Complete Bank Of Music Information

МУЗЫКАЛЬНО-ИНФОРМАЦИОННЫЙ БАНК

Поиск по сайту







    AArch Enemy • Pilgrim (аккорды и текст - chords & lyrics)


    367

    Print

    Видео «Pilgrim (Arch Enemy)»

    Видео клипы к песне подбираются автоматически сайтом youtube. Возможны некоторые несоответствия клипов песне.

    ↑ Спрятать рекламу ↑



    Download


    ..  - palm mute          /  - slide up to
      - slide down to      ~  - vibrato
    h  - hammer on          b  - bend
    p  - pull off            Suffixes for bend
                              ph - pinch harmonic
                               f - full bend    h - half bend
    *  - see comment           r - release      t - tap
    X  - percussion mute       ~ - vibrato bend
    @  - slight palm mute     () - ghost note, 
    sustained note
    
    Tune Gtr to B
    
    Arch Enemy - Pilgrim
    
    
    From the womb, to the tomb
    An eternal struggle for the holy truth
    We are not the first, nor shall we be the last
    We shall be followed by thousands more
    Study the scriptures - Intensify the faith
    The works of men much greater than you or I
    From the cradle to the grave
    Thousands of immortal souls just waiting to be saved!
    
    Pilgrim man - What are you searching for?
    Believe the tales when everything else fails
    Pilgrim man - Deep in your heart you know
    Your faith is already bought and sold
    
    All my life I served the cross
    Always believing my God was a just one
    I maimed for you - I killed for you
    But looking back at my life
    I just don't know anymore...
    
    
    Riff A.1
    |-----------------------------------------------------------------|
    |-----------------------------------------------------------------|
    |-9-9-----9-9-----------------------------------------------------|Gtrs I
    |-7-7-777-7-7-777-8-8-----8-8-------------------------------------|  & II
    |-----------------6-6-666-6-6-666-8-8-----8-8-----7-7-----6-6-----|
    |---------------------------------6-6-666-6-6-666-5-5-555-4-4-444-|
    |     ...     ...     ...     ...     ...     ...     ...     ...
    |
    |-----------------------------------------------------------------|
    |-----------------------------------------------------------------|
    |-9-9-----9-9-----------------------------------------------------|Gtrs I
    |-7-7-777-7-7-777-8-8-----8-8-------------------------------------|  & II
    |-----------------6-6-666-6-6-666-8-8-----8-8-----7-------6-------|
    |---------------------------------6-6-666-6-6-666-5-------4-------|
          ...     ...     ...     ...     ...     ...
    
    
    Repeat Riff A.1 (1 time)
    
    
    Solo 1
    |-------------p-------------ah-----------------------|
    |-/17~------17-13--15~------15~----15fb--13----------|
    |-------------------------------------------14~------|Gtr
    |----------------------------------------------------| I
    |----------------------------------------------------|
    |----------------------------------------------------|
    |
    |Riff B.1                                            
    |----------------------------------------------------|
    |--10--------------8--------5------------------------|
    |--9---------------7--------4----------------5-----7-|Gtr
    |--7---------------5--------2------------333-3-555-5-| II
    |--7---------------5--------2------------------------|
    |----------------------------------------------------|
    |				               
    |
    |----------------------------------------------------|
    |------13-17-15~--/17--15----------------------------|
    |-/14---------------------17-14--------------14-16~--|Gtr
    |-------------------------------17~--/14--17---------| I
    |----------------------------------------------------|
    |----------------------------------------------------|
    |                                                    
    |
    |----------------------------------------------------|
    |--10--------8---------------------------------------|
    |--9---------7---------------------------------------|Gtr
    |--7---------5------------------5---------7-----9----| II
    |--7---------5------------------3---------5-----7----|
    |----------------------------------------------------|
    |
    |				p
    |-----------p--p--------15fb--17-15----------15--15fb-15fb+r-------------|
    |-/17~----17-15-13-15~--------------17-15-17-----------------13~---------|
    |------------------------------------------------------------------------|Gtr
    |------------------------------------------------------------------------| I
    |------------------------------------------------------------------------|
    |------------------------------------------------------------------------|
    |                                                                        
    |
    |------------------------------------------------------------------------|
    |--10--------------8----------5------------------------------------------|
    |--9---------------7----------4----------------------------------5-----7-|Gtr
    |--7---------------5----------2------------------------------333-3-555-5-| II
    |--7---------------5----------2------------------------------------------|
    |------------------------------------------------------------------------|
    |                  						       
    |
    |---------------------------------------------------| *make a dive w/bar
    |------13-17-15~--/17--15-------------------------*-|
    |-/14---------------------17-14--------------14-16--|Gtr
    |-------------------------------17~--/14--17--------| I
    |---------------------------------------------------|
    |---------------------------------------------------|
    |                                                   
    |
    |---------------------------------------------------|
    |--10--------8--------------------------------------|
    |--9---------7--------------------------------------|Gtr
    |--7---------5------------------5---------7-----9---| II
    |--7---------5------------------3---------5-----7---|
    |---------------------------------------------------|
    
    
    Riff C.1  *only the first time
    |-------------------------------------------------|
    |-------------------------------------------------|
    |-------------------------------------------------|Gtr
    |-------------------------------7--6--------------| I
    |----*--------------------------8--7--------------|
    |-(000)-000-000-000-000-000-000-------000-000-000-|
    |  ...  ... ... ... ... ... ...       ... ... ... 
    |
    |-------------------------------------------------|
    |-------------------------------------------------|
    |-------------------------------10-9--------------|Gtr
    |-------------------------------------------------| II
    |-----*-------------------------8--7--------------|
    |-(000)-000-000-000-000-000-000-------000-000-000-|
    |  ...  ... ... ... ... ... ...       ... ... ...
    |
    |-------------------------------|
    |-------------------------------|
    |--h--p-h-----p-h----p-h--------|Gtr
    |-9-12-9-12--9-6-9--6-3-6-------| I
    |-----------------------------2-|
    |--------------------------1--0-|
    |                               
    |
    |-------------------------------|
    |-------------------------------|
    |--h--p-h-----p-h---------------|Gtr
    |-6-9--6-9---6-3-6---p-h--------| II
    |-------------------8-5-8-----2-|
    |--------------------------1--0-|
    |
    |
    |-------------------------------------------|
    |-------------------------------------------|
    |-------------------------------------------|Gtr
    |-------------------------7--6--------------| I
    |-------------------------8--7--------------|
    |-000-000-000-000-000-000-------000-000-000-|
    | ... ... ... ... ... ...       ... ... ... 
    |
    |-------------------------------------------|
    |-------------------------------------------|
    |-------------------------10-9--------------|Gtr
    |-------------------------------------------| II
    |-------------------------8--7--------------|
    |-000-000-000-000-000-000-------000-000-000-|
    | ... ... ... ... ... ...       ... ... ...
    |
    |------------------------------| *not the last time
    |------------------------------|
    |---------10~------------------|Gtr
    |-12-9-12------12-9----------*-| I
    |-------------------11-8~--(2)-|
    |--------------------------(0)-|
    | .  . .                       
    |
    |------------------------------|
    |------------------------------|
    |----------7~------------------|Gtr
    |-9--6-9-------9--6-9--------*-| II
    |----------------------8~--(2)-|
    |--------------------------(0)-|
      .  . .
    
    
    Repeat Riff C.1 (3 times)
    
    
    Riff D.1
    |-----------------------------------------|
    |-----------------------------------------|
    |-9-X-9-X-9--XX-5-5--XX-7-X-7--XX-9-9--XX-|Gtrs I
    |-9-X-9-X-9--XX-5-5--XX-7-X-7--XX-9-9--XX-|  & II
    |-7-X-7-X-7--XX-3-3--XX-5-X-5--XX-7-7--XX-|
    |-----------------------------------------|
    
    
    Repeat Riff D.1 (1 time)
    
    
    Riff D.2 w/riff D.1 on top 2x
    |----------------h------------------------------------------|
    |-/8--7-----7-8-8-10--8--7fb+r-----/7--8--------------------|
    |-------9~---------------------9~--------9~------------7-ah-|Gtr
    |-------------------------------------------7--9-7-9-7---9~-| I
    |-----------------------------------------------------------|
    |-----------------------------------------------------------|
    |
    |riff D.3 w/riff D.1 on top 2x
    |-----------------------h------------------------------------------------|
    |-/8---7-------7---8--8--10--8---7fb+r-------/7---8----------------------|
    |---------9~----------------------------9~-----------9~-------------7-ah-|Gtr
    |--------------------------------------------------------7--9-7-9-7---9~-| I
    |------------------------------------------------------------------------|
    |------------------------------------------------------------------------|
    |                                                                        
    |
    |-----------------------h------------------------------------------------|
    |-/12--10------10--12-12-13--12--10fb+r------/12--10---------------------|
    |---------12~---------------------------12~----------12~------------7-ah-|Gtr
    |--------------------------------------------------------7--9-7-9-7---9--| II
    |------------------------------------------------------------------------|
    |------------------------------------------------------------------------|
    
    
    Solo 2 w/Riff C.1 on top 2x    1Ѕ    1Ѕ
    |-----17fb--17fb+r------------*-----*--------------------------------------------|
    |-/17--------------18~------18fb--18fb+r-----------------------------------------|
    |-----------------------/19--------------21~--9-10-10-10-13-13-13-14-14-14-16-16-|Gtr
    |--------------------------------------------------------------------------------| I
    |---------------------------------------------7-8--8--8--11-11-11-12-12-12-14-14-|
    |--------------------------------------------------------------------------------|
    |
    |
    |-----------------------------------------------------------------------------|
    |---------h--p----------------------------------------------------------------|
    |-17fb--17-19-17-16~----------------------------------------------------------|Gtr
    |---------------------------------------------------------------141214-151415-| I
    |-----------------------------------121112-141214-151415-171517---------------|
    |---------------------121012-131213-------------------------------------------|
    |                     . . .  . . .  . . .  . . .  . . .  . . .  . . .  . . .
    |
    |----------------------------------------------------|
    |---------------------------------15-17-15-----------|
    |-141314-161416-1716---161916--12----------17-14-13~-|Gtr
    |-------------------19-------------------------------| I
    |----------------------------------------------------|
    |----------------------------------------------------|
    | . . .  . . .
    |   p		   p		     p					       *w/delay
    |-10-7--p--------13-10---p---------16-13---p----------17fb--17-19-17-16~----22fb-|
    |------9-6-------------12-9--------------15-12-----------------------------------|
    |----------7----------------10-----------------13--------------------------------|Gtr
    |------------9-----------------12-----------------15-----------------------------| I
    |--------------------------------------------------------------------------------|
    |--------------------------------------------------------------------------------|
    
    
    Repeat Riff C.1 (2 times)
    Repeat Riff D.1 (2 times)
    Repeat Riff D.2 (1 time)w/riff D.1 on top
    Repeat Riff D.3 (1 time)w/riff D.1 on top
    
    
    Interlude					    *1Ѕ				  *1Ѕ
    |----------10-15-15fb+r-15~--------------10--15fb+r+b+r-15~--------10-15-15fb+r-15b+r-13~----14~-|
    |-------11---------------------------11-------------------------11-------------------------------|
    |----12--------------------------12--------------------------12----------------------------------|Gtr
    |------------------------------------------------------------------------------------------------| I
    |------------------------------------------------------------------------------------------------|
    |------------------------------------------------------------------------------------------------|
    |                                                                            
    |                     
    |------------------------------------------------------------------------------------------------|
    |------------------------------------------------------------------------------------------------|
    |-12------------------------10-8------------------------8-----------------------------10--10-----|Gtr
    |-12------------------------10-8------------------------8-10-----------------------10-10--10-12--| II
    |-10------------------------8--6------------------------6-7------------------------7--8---8--9---|
    |------------------------------------------------------------------------------------------------|
    |
    |
    |-----------------------------------------------------------------------------|
    |-----------------------------------------------------------------------------|
    |-141512~--------------------(12)-141512~------------------------(12)-141512~-|Gtr
    |-----------------------------------------------------------------------------| I
    |-----------------------------------------------------------------------------|
    |-----------------------------------------------------------------------------|
    |
    |Riff E.1                                                                      
    |-----------------------------------------------------------------------------|
    |-----------------------------------------------------------------------------|
    |---------------------------------------------8-8-----12-12-10-10-8-8---------|Gtr
    |-----5-5-----5-5-----8-8-7-7-5-5---------8-8-----8-8-----------------8-8-----| II
    |---------5-5-----5-5-------------5-5-6-6---------------------------------7-7-|
    |-----------------------------------------------------------------------------|
    |pm...........................................................................|
    |
    |-----------------------------------------------------------------------------------|
    |-----------------------------------------------------------------------------------|
    |----------------------------(12)-14-15-17~-------------14-15-17~-------------------|Gtr
    |-----------------------------------------------------------------------------------| I
    |-----------------------------------------------------------------------------------|
    |-----------------------------------------------------------------------------------|
    |                                                                            
    |        
    |-----------------------------------------------------------------------------------|
    |-------------------------------------------------10-10-----------------10-10-------|
    |-------9-9-------12-12-10-10-9-9-----------------------10-10-----------------11-11-|Gtr
    |-10-10-----10-10-----------------10-10-----10-10-----------------12-12-------------| II
    |---------------------------------------8-8-------------------9-9-------------------|
    |-----------------------------------------------------------------------------------|
    |pm.................................................................................|
    |
    |w/riff E.1 on top
    |----------------------------------------------------------------------|
    |----------------------------------------------------------------------|
    |-14-15-12~--(12)-14-15-12~--(12)-14-15-12~--(12)-14-15-17~--14-15-17~-|Gtr
    |----------------------------------------------------------------------| I
    |----------------------------------------------------------------------|
    |----------------------------------------------------------------------|
    |                                                                      
    |
    |----------------------------------------------------------------------|
    |-13-15-----------13-15-----------13-15-----------13-15-16~--13-15-17~-|
    |-------15~--(15)-------15~--(15)-------15~--(15)----------------------|Gtr
    |----------------------------------------------------------------------| II
    |----------------------------------------------------------------------|
    |----------------------------------------------------------------------|
    |
    |w/riff E.1 on top
    |----------------------------------------------------------------------|
    |----------------------------------------------------------------------|
    |-14-15-12~--(12)-14-15-12~--(12)-14-15-12~--(12)-14-15-17~--14-15-17~-|Gtr
    |----------------------------------------------------------------------| I
    |----------------------------------------------------------------------|
    |----------------------------------------------------------------------|
    |                                                                      
    |
    |----------------------------------------------------------------------|
    |-13-15-----------13-15-----------13-15-----------13-15-16~--13-15-17~-|
    |-------15~--(15)-------15~--(15)-------15~--(15)----------------------|Gtr
    |----------------------------------------------------------------------| II
    |----------------------------------------------------------------------|
    |----------------------------------------------------------------------|
    |                                                                      
    |
    |-13-15-----------13-15-----------13-15-----------13-15-17~--13-15-17~-|
    |-------15~--(15)-------15~--(15)-------15~--(15)----------------------|
    |----------------------------------------------------------------------|Gtr
    |----------------------------------------------------------------------|III
    |----------------------------------------------------------------------|
    |----------------------------------------------------------------------|
    
    
    Repeat Riff D.1 (2 times)
    Repeat Riff D.2 (1 time)w/riff D.1 on top
    Repeat Riff D.3 (1 time)w/riff D.1 on top
    
    				                                          
    *not sure about
    |-----------------------h------------------------------------------------|this part to hard
    |-/8---7-------7---8--8--10--8---7fb+r-------/7---8----------------------| to hear
    |---------9~----------------------------9~-----------9~-----*-------7----|Gtr
    |-----------------------------------------------------------9-7-9-7---9-| I
    |------------------------------------------------------------------------|
    |------------------------------------------------------------------------|
    |                                                                        
    |
    |-----------------------h------------------------------------------------|
    |-/12--10------10--12-12-13--12--10fb+r------/12--10---------------------|
    |---------12~---------------------------12~----------12~----*-------7----|Gtr
    |-----------------------------------------------------------9-7-9-7---9-| II
    |------------------------------------------------------------------------|
    |------------------------------------------------------------------------|
    |                       h                                                
    |
    |-/12--10------10--12-12-14--12--10fb+r------/12--10---------------------|
    |---------12~---------------------------12~----------12~--------------8-|
    |-----------------------------------------------------------*---7-9-7----|Gtr
    |-----------------------------------------------------------9-7----------|III
    |------------------------------------------------------------------------|
    |------------------------------------------------------------------------|
    |                                                                        
    |
    |------------------------------------------------------------------------|
    |------------------------------------------------------------------------|
    |--9------5-----------7----------9------------9------5-------------------|Gtr
    |--9------5-----------7----------9------------9------5-------------------| IV
    |--7------3-----------5----------7------------7------3-------------------|
    |------------------------------------------------------------------------|
    End

    Тональность:

    Нет текста!



    Назад
    Рекомендуем посмотреть другие песни исполнителя «Arch Enemy»:

    • Комментарии Facebook ()
    • Комментарии ВКонтакте



    Добавить в Избранное Браузера
    Сохранить здесь Очистить


    x

    0


    +
    -

    +
    -

    -

    Авторизация





    Зарегистрироваться

    M

    Дата и время

    • 09:09:59
       

    Социальные ссылки


    Наши приложения

    • Muzbank App Play Market
    • Muzbank Amazon App