MUZBANK



A Most Complete Bank Of Music Information

МУЗЫКАЛЬНО-ИНФОРМАЦИОННЫЙ БАНК

Поиск по сайту







    AArea 7 • Tale Of The Bear Boy (аккорды и текст - chords & lyrics)


    253

    Print

    Видео «Tale Of The Bear Boy (Area 7)»

    Видео клипы к песне подбираются автоматически сайтом youtube. Возможны некоторые несоответствия клипов песне.

    ↑ Спрятать рекламу ↑



    Download


     
    
    
    Tuning: Drop D
    
    Intro & Verse:
    E|--------------------------------|
    B|--------------------------------|
    G|--14-14-------------------10-9-*|
    D|--14-14--10-10--12-12--12-10-9-*|
    A|--12-12--10-10--12-12--12--8-9--|
    D|---------10-10--12-12--12-------|
    A A C C D D D F E
    Chorus:
    E|--------------------|
    B|--------------------|
    G|-------------------*|
    D|--7--10--12--10--9-*|
    A|--7--10--12--10--9--|
    D|--7--10--12--10--9--|
    A C D C B
    Build Up:
    E|---------------------------------|
    B|---------------------------------|
    G|--7-7--7-9-9--9-10-10--10-12-12-*|
    D|--7-7--7-9-9--9-10-10--10-12-12-*|
    A|--5-5--5-7-7--7--8--8---8-12-12--|
    D|---------------------------------|
    D D D E E E F F F
    Solo (uses thes chords):
    E|---------------|
    B|---------------|
    G|--14---10---9-*|
    D|--14---10---9-*|
    A|--12----8---9--|
    D|---------------|
     

    Тональность:

    Нет текста!



    Назад
    Рекомендуем посмотреть другие песни исполнителя «Area 7»:

    • Комментарии Facebook ()
    • Комментарии ВКонтакте



    Добавить в Избранное Браузера
    Сохранить здесь Очистить


    x

    0


    +
    -

    +
    -

    -

    Авторизация





    Зарегистрироваться

    M

    Дата и время

    • 21:25:07
       

    Социальные ссылки


    Наши приложения

    • Muzbank App Play Market
    • Muzbank Amazon App