MUZBANK



A Most Complete Bank Of Music Information

МУЗЫКАЛЬНО-ИНФОРМАЦИОННЫЙ БАНК

Поиск по сайту







    ААрия • Кровь за кровь (аккорды и текст - chords & lyrics)


    660

    Print

    Видео «Кровь за кровь (Ария)»

    Видео клипы к песне подбираются автоматически сайтом youtube. Возможны некоторые несоответствия клипов песне.

    ↑ Спрятать рекламу ↑



    Download



    Проигрыш:
    E|------------------------------|------------------------------|
    B|----8---7---------------------|---7--------------------------|
    G|---9--------9---7-------9-----|---7---9---7----------8-------|
    D|--9-------------------10------|---7-----------10----9--------|
    А|--------------------10--------|--------------------9---------|
    E|------------------------------|------------------------------|
    
    E|------------------------------|-----------------------------||
    B|---8---7----8----10--8--------|-7--8--7--8--7Н8р7-----------||
    G|--9------9------9----------9--|-7------------------7-----9--||
    D|-9------------10---------10---|-7-----------------------9---||
    А|-----------------------10-----|-----------------------10----||
    E|------------------------------|-----------------------------||
    
    Main riff:
    
    E|------------------------------|------------------------------|
    B|------------------------------|------------------------------|
    G|------------------------------|------------------------------|
    D|--7-------8-------7-----------|------------------------------|
    А|-----8--5----8--5----8--5-5---|-5-5-----5--7--8--7-5Н7р5---5-|
    E|------------------------------|------8--------------------8--|
    
    E|------------------------------|------------------------------|
    B|------------------------------|------------------------------|
    G|------------------------------|------------------------------|
    D|--7--------8--------7---------|------------------------------|
    А|-----8--5-----8--5-----8--5-5-|-5-5----5--7--8--7-5Н7р5------|
    E|------------------------------|------8------------------8--5-|
    
    E|------------------------------|------------------------------|
    B|------------------------------|------------------------------|
    G|------------------------------|------------------------------|
    D|-7--------8-------7-----------|------------------------------|
    А|----8--5-----8--5---8--5---5--|-5-5---5-7--8--7--5Н7р5--8--5-|
    E|------------------------------|-----8------------------------|
    
    E|------------------------------|------------------------------|
    B|------------------------------|------------------------------|
    G|------------------------------|------------------------------|
    D|-7--------8--------7----------|----------------------------7-|
    А|----8--5-----8--5-----8--5--5-|-5--5---5--7-8--7-5Н7р5--8----|
    E|------------------------------|------8-----------------------|
    I Версия :
    
       G5                                   А5
       Ты готов сорваться в бой...  Понтий Пилат
    E|----------------------|--------------------------------------|
    B|----------------------|------------------------------11--10--|
    G|----------------------|--------------------------------------|
    D|---5------------------|--------7----------8--7---------------|
    А|---5------------------|--------7----8--7--------8--7---------|
    E|---3------------------|--------5-----------------------------|
    
     А
    Древний град Иерусалим довлеет над тобой
    Н
    Понтий Пилат
     А                         Н
    Ты готов сорваться в Рим, махнуть на все рукой
     А             Н
    Забрав с собой солдат
     G#
    Ты устал от этих лиц
               А
    От чужой, неискренней земли
    G#
    Боль тупая бьет в висок
    А            Н C    Н
    Дню мучений выпал срок
    
    Em
    Кровь за кровь!
         D                 Em
    В том воля не людей, а богов
     Em
    Смерть за смерть!
        D                       Н
    Ты должен не роптать, а терпеть
    Em
    Здесь твой ад!
    D                     Em
    Ты знаешь - нет дороги назад
    Em
    Пей свой яд!
     D                      Н
    Пей, прокуратор Понтий Пилат
    
    Над Голгофой - траур мглы ты чувствуешь беду
    Ты сам не свой
    Меж солдат, от зноя злых, твоих решений ждут
    Два вора и святой
    
    Он безумен - видит Бог
    Виноват, лишь в том, что одинок
    Но ты шепчешь приговор
                      Иудейский царь распят как вор!
    
                        Em           C
    * (Так играется    В серебристый сон
    * только здесь)     D            Н
    *                  Ты бы с ним ушел
    *                  По дороге вечных звезд
    *                  Над простором строгих гор
    *                  Ты бы перед ним
    *                  На колени встал
    *                  Не стыдясь ни слов, ни слез
    *                  Кто любил - тот и распял...
    
    Ты хотел найти покой на дне озерных вод
    Понтий Пилат
    Ты стал сам себе судьей, но смерть твоя не в счет
    Для вечной Силы Зла
    
    Дьявол помнит о тебе
    Он в страстную ночь идет к воде
    Жаждет смыть с себя позор
    Но все тщетно до сих пор.
    

    Тональность:

    Нет текста!



    Назад
    Рекомендуем посмотреть другие песни исполнителя «Ария»:

    • Комментарии Facebook ()
    • Комментарии ВКонтакте



    Добавить в Избранное Браузера
    Сохранить здесь Очистить


    x

    0


    +
    -

    +
    -

    -

    Авторизация





    Зарегистрироваться

    M

    Дата и время

    • 20:44:49
       

    Социальные ссылки


    Наши приложения

    • Muzbank App Play Market
    • Muzbank Amazon App