MUZBANK



A Most Complete Bank Of Music Information

МУЗЫКАЛЬНО-ИНФОРМАЦИОННЫЙ БАНК

Поиск по сайту







    ААрия • Мания величия (аккорды и текст - chords & lyrics)


    538

    Print

    Видео «Мания величия (Ария)»

    Видео клипы к песне подбираются автоматически сайтом youtube. Возможны некоторые несоответствия клипов песне.

    ↑ Спрятать рекламу ↑



    Download



    Tempo: slow (80 bpm)
    (0:01 - 0:26)
    INTRO:
    Church Organ.
    ...
    (0:26 - 0:50)
    VERSE 1: (*2 times)
    Choir1
    E|-10----------------------------------------------|
    B|-------10-------------------------------------8--|
    G|----------7--------------------------7--9--10----|
    D|-------------------------------------------------|
    A|-------------------------------------------------|
    E|-------------------------------------------------|
    
    E|-------------------------------------------------|
    B|-10-------10----------------------------------8--|
    G|-------9-----------------------------7--9--10----|
    D|-------------------------------------------------|
    A|-------------------------------------------------|
    E|-------------------------------------------------|
    
    Bass  G|------------|------------|
     +    D|------------|------------|
    choir2A|-5--7--8--5-|-4--5--7----|
          E|------------|----------5-|
    
    Choir1
    E|-------------------------------------------------|
    B|-10----8--------8--10----8-----------------------|
    G|----------10----------------------------9--10----|
    D|----------------------------10-------------------|
    A|-------------------------------------------------|
    E|-------------------------------------------------|
    
    E|---------------------------|
    B|---------------------------|
    G|-7--------10----9--7-----7-|
    D|----------------------10---|
    A|---------------------------|
    E|---------------------------|
    
    Bass  G|-------------------------|---------------------------|
     +    D|-------------------------|---------------------------|
    choir2A|-------------------------|-5--------8-----7--5-----5-|
          E|-6---------8-----------5-|----------------------8----|
    ...
    (1:12 - 1:36)
    CHORUS: (*2 times)
    Choir1
    E|-10----------------------------------------------|
    B|-------10-------------------------------------8--|
    G|----------7--------------------------7--9--10----|
    D|-------------------------------------------------|
    A|-------------------------------------------------|
    E|-------------------------------------------------|
    
    E|-------------------------------------------------|
    B|-10-------10----------------------------------8--|
    G|-------9-----------------------------7--9--10----|
    D|-------------------------------------------------|
    A|-------------------------------------------------|
    E|-------------------------------------------------|
    
    Gtr.
    E|---|---|
    B|---|---|
    G|---|---|
    D|-7-|---|
    A|-5-|-7-|
    E|---|-5-|
    
    Choir1
    E|-------------------------------------------------|
    B|-10----8--------8--10----8-----------------------|
    G|----------10----------------------------9--10----|
    D|----------------------------10-------------------|
    A|-------------------------------------------------|
    E|-------------------------------------------------|
    
    E|-------------------------------------------------|
    B|-------------------------------------------------|
    G|-7--------10----9--7-----7-----------------------|
    D|----------------------10-------------------------|
    A|-------------------------------------------------|
    E|-------------------------------------------------|
    
    Gtr.
    E|-------------------------------------------------|---|
    B|-------------------------------------------------|---|
    G|-------------------------------------------------|---|
    D|-------------------------------------------------|-7-|
    A|--8----------------------10----------7-----------|-5-|
    E|--6----------------------8-----------5-----------|---|
    undefined
    

    Тональность:

    Нет текста!



    Назад
    Рекомендуем посмотреть другие песни исполнителя «Ария»:

    • Комментарии Facebook ()
    • Комментарии ВКонтакте



    Добавить в Избранное Браузера
    Сохранить здесь Очистить


    x

    0


    +
    -

    +
    -

    -

    Авторизация





    Зарегистрироваться

    M

    Дата и время

    • 21:25:04
       

    Социальные ссылки


    Наши приложения

    • Muzbank App Play Market
    • Muzbank Amazon App