MUZBANK



A Most Complete Bank Of Music Information

МУЗЫКАЛЬНО-ИНФОРМАЦИОННЫЙ БАНК

Поиск по сайту







    AArmor For Sleep • Dream To Make Believe (аккорды и текст - chords & lyrics)


    259

    Print

    Видео «Dream To Make Believe (Armor For Sleep)»

    Видео клипы к песне подбираются автоматически сайтом youtube. Возможны некоторые несоответствия клипов песне.

    ↑ Спрятать рекламу ↑



    Download


     
    
    
    -------------------------------------------------------------------------------
    		Dream To Make Believe - Armor For Sleep
    -------------------------------------------------------------------------------
    Tabbed by:Eric Pihl
    Email:
    
    Tuning:Dropped D
    Intro
    e|3-------------0------*---3-------------0------*----------------------------|
    B|--0-----3-------3---3*-----0-----3-------3---3*----------------------------|
    G|----5-----5-------5--*-------5-----5-------5--*----------------------------|
    D|------5-----5--------*---------5-----5--------*----------------------------|
    A|---------------------*------------------------*----------------------------|
    E|---------------------*------------------------*----------------------------|
    
    e|------------*------------*------------*------------------------------------|
    B|------------*------------*888888888888*------------------------------------|
    G|555544444444*555544444444*999999999999*------------------------------------|
    D|555555555555*555555555555*------------*------------------------------------|
    A|333333333333*333333333333*777777777777*------------------------------------|
    D|333333333333*333333333333*777777777777*------------------------------------|
    Verse-do this 2 times
    e|---------------------------------------------------------------------------|
    B|---------------------------------------------------------------------------|
    G|---------------------------------------------------------------------------|
    D|3333-3-33-3-3-3333-3-33-3-3-99-9-10-9-10-99-9-10-9-10----------------------|
    A|3333-3-33-3-3-3333-3-33-3-3-77-7-7--7-7--77-7-7--7-7-----------------------|
    D|3333-3-33-3-3-3333-3-33-3-3-77-7-7--7-7--77-7-7--7-7-----------------------|
    Chorus-do this 4 times
    e|---------------------------------------------------------------------------|
    B|---------------------------------------------------------------------------|
    G|---------------------------------------------------------------------------|
    D|0000000000777777333333-----------------------------------------------------|
    A|0000000000777777333333-----------------------------------------------------|
    D|0000000000777777333333-----------------------------------------------------|
    2nd verse
    e|---------------------------------------------------------------------------|
    B|---------------------------------------------------------------------------|
    G|---------------------------------------------------------------------------|
    D|3~-----------3~---------7~---------99-9-10-9-10-99-9-10-9-10---------------|
    A|3~-----------3~---------7~---------77-7-7--7-7--77-7-7--7-7----------------|
    D|3~-----------3~---------7~---------77-7-7--7-7--77-7-7--7-7----------------|
    Chorus again-do this 4 times
    e|---------------------------------------------------------------------------|
    B|---------------------------------------------------------------------------|
    G|---------------------------------------------------------------------------|
    D|0000000000777777333333-----------------------------------------------------|
    A|0000000000777777333333-----------------------------------------------------|
    D|0000000000777777333333-----------------------------------------------------|
    do this 2 times 
    e|3-------------0------*-3-------------0------*------------------------------|
    B|--0-----3-------3---3*---0-----3-------3---3*------------------------------|
    G|----5-----5-------5--*-----5-----5-------5--*------------------------------|
    D|------5-----5--------*-------5-----5--------*------------------------------|
    A|---------------------*----------------------*------------------------------|
    D|---------------------*----------------------*------------------------------|
    Do this 2 times
    e|---------------------------------------------------------------------------|
    B|---------------------------------------------------------------------------|
    G|---------------------------------------------------------------------------|
    D|3333-3-33-3-3-3333-3-33-3-3--99-9-10-9-10-99-9-10-9-10---------------------|
    A|3333-3-33-3-3-3333-3-33-3-3--77-7-7--7-7--77-7-7--7-7----------------------|
    D|3333-3-33-3-3-3333-3-33-3-3--77-7-7--7-7--77-7-7--7-7----------------------|
    
    
    e|------------*-------------*-------------*-------------*--------------------|
    B|------------*-------------*-888888888888*-888888888888*--------------------|
    G|555544444444*-555544444444*-999999999999*-999999999999*--------------------|
    D|555555555555*-555555555555*-------------*-------------*--------------------|
    A|333333333333*-333333333333*-777777777777*-777777777777*--------------------|
    D|333333333333*-333333333333*-777777777777*-777777777777*--------------------|
    
    
    e|-----------*------------*------------*------------*------------------------|
    B|-----------*------------*-88-88-88-88*-88-88-88-88*------------------------|
    G|55-44-44-44*-55-44-44-44*-99-99-99-99*-99-99-99-99*------------------------|
    D|55-55-55-55*-55-55-55-55*------------*------------*------------------------|
    A|33-33-33-33*-33-33-33-33*-77-77-77-77*-77-77-77-77*------------------------|
    D|33-33-33-33*-33-33-33-33*-77-77-77-77*-77-77-77-77*------------------------|
    
    | *  silence string
    | /  slide up
    |   slide down
    | h  hammer-on
    | p  pull-off
    | ~  vibrato
    | +  harmonic
    | x  Mute note
    ===============================================================================
     

    Тональность:

    Нет текста!



    Назад
    Рекомендуем посмотреть другие песни исполнителя «Armor For Sleep»:

    • Комментарии Facebook ()
    • Комментарии ВКонтакте



    Добавить в Избранное Браузера
    Сохранить здесь Очистить


    x

    0


    +
    -

    +
    -

    -

    Авторизация





    Зарегистрироваться

    M

    Дата и время

    • 21:30:13
       

    Социальные ссылки


    Наши приложения

    • Muzbank App Play Market
    • Muzbank Amazon App