MUZBANK



A Most Complete Bank Of Music Information

МУЗЫКАЛЬНО-ИНФОРМАЦИОННЫЙ БАНК

Поиск по сайту







    AAt The Drive-in • 198d (аккорды и текст - chords & lyrics)


    179

    Print

    Видео «198d (At The Drive-in)»

    Видео клипы к песне подбираются автоматически сайтом youtube. Возможны некоторые несоответствия клипов песне.

    ↑ Спрятать рекламу ↑



    Download


     
    
    
    Track: 198d
    Artist: At The Drive-In
    Album: Vaya
    Tabbed by: Dave The Bookie (dave_the_bookie@hotmail.com)
    
    Standard Tuning (E B G D A E)
    
    Gtr.1
    
    |----------------------------|
    |----------------------------|
    |----------------------------|
    |--7---7---7---7---7---7-5---|
    |----------------------------|
    |----------------------------|
    
    Gtr.2 (w/long delay)
    
    |--5-3--3p2h3p2--------------5-3—3p2--------------|
    |----------------3-2--2p0-----------0--3-2—2p0----|
    |-------------------------------------------------|
    |-------------------------------------------------|
    |-------------------------------------------------|
    |-------------------------------------------------|
    
    Verse
    
    Gtr.1
    
    |--17--15-14-----14-----17--15-14------------|
    |------------17-----15------------17--15-----|
    |--------------------------------------------|
    |--------------------------------------------|
    |--------------------------------------------|
    |--------------------------------------------|
    
    Chorus
    
    Gtr.1
    
    |-------------------------------|
    |---------------0---------------|
    |--14--12—12p11-----------------|
    |---x---x--x--x---12--11--9-----|
    |--12--10-10-10----x---x--x-----|
    |-----------------10---9--7-----|
    
    Gtr.2 plays chords E and B through the chorus
    
    Gtr.1
    
     Let ring………………………………………………………………………………………
    |--------------------------------------------|
    |--------------------------------------------|
    |--------------------------------------------|
    |--------------------------------------------|
    |--------------------------------------------|
    |--7------------5------------3---------------|
    
    Post-Chorus
    
    Gtr.1
    
    |--------------------------------------------|
    |--------------------------------------------|
    |--------------------------------------------|
    |--------------------7*----------------------|
    |--------------------------------------------|
    |--7-------5---------------------------------|
    
    Gtr.2
    
    |--2---------0---------------------|
    |----3-----2---2----------3--------|
    |------4---------2------4----------|
    |--------------------5-------------|
    |----------------------------------|
    |----------------------------------|
    
    Middle
    
    Gtr.1
    
    |--17-----15-----14--------------------|
    |------------------17-15------15-------|
    |--------------------------16----------|
    |--------------------------------------|
    |--------------------------------------|
    |--------------------------------------|
    
    Gtr.2
    
    |--2-------------0----------------------------|---5-5-5---|
    |--------------2---2----------3---3---3---3---|-----------|
    |-----0---------------------4---4---4---4-----|-4---------|
    |-------0-------------0-----------------------|-----------|
    |-----------0---------------------------------|-----------|
    |---------0-------------0-3-------------------|-----------|
    
    Break
    
    Gtr.1
    
    |-------------------------------------------------|
    |-------------------------------------------------|
    |-11------------9-------------7-7----7-7----7-7---|
    |--0------------0-------------x-x----x-x----x-x---|
    |--9------------7-------------5-5----5-5----5-5---|
    |-------------------------------------------------|
    
    Gtr.2
    
    |-------------------------------------------------|
    |-------------------------------------------------|
    |--11---------------------------------------------|
    |---0-------------------------5-5----5-5----5-5---|
    |---0-------------------------5-5----5-5----5-5---|
    |-----------------------------3-3----3-3----3-3---|
     

    Тональность:

    Нет текста!



    Назад
    Рекомендуем посмотреть другие песни исполнителя «At The Drive-in»:

    • Комментарии Facebook ()
    • Комментарии ВКонтакте



    Добавить в Избранное Браузера
    Сохранить здесь Очистить


    x

    0


    +
    -

    +
    -

    -

    Авторизация





    Зарегистрироваться

    M

    Дата и время

    • 11:40:19
       

    Социальные ссылки


    Наши приложения

    • Muzbank App Play Market
    • Muzbank Amazon App