MUZBANK



A Most Complete Bank Of Music Information

МУЗЫКАЛЬНО-ИНФОРМАЦИОННЫЙ БАНК

Поиск по сайту







    AAt The Drive-in • Shaking Hand Incision (аккорды и текст - chords & lyrics)


    258

    Print

    Видео «Shaking Hand Incision (At The Drive-in)»

    Видео клипы к песне подбираются автоматически сайтом youtube. Возможны некоторые несоответствия клипов песне.

    ↑ Спрятать рекламу ↑



    Download


     
    
    
    Track: Shaking Hand Incision
    Artist: At The Drive-In
    Album: In/Casino/Out
    Tabbed by: Dave The Bookie (dave_the_bookie@hotmail.com)
    
    Standard Tuning (E B G D A E)
    
    Intro/Verse
    
    Gtr.1
    
    |-----------------------------------------------------|
    |-----------------------------------------------------|
    |-----------------------------------------------------|
    |--2/77777--77--4-5-4-2-0-2-2/77777--77--4-5-4-2-0-2--|
    |--2/77777--77--------------2/77777--77---------------|
    |-----------------------------------------------------|
    
    Gtr.2
    
    |---------------------------------------------|
    |---------------------------------------------|
    |---------------------------------------------|
    |---------------------------------------------|
    |---------------------------------------------|
    |--5--5--5/2-3-2-0-0-0--5--5--5/2-3-2-0-0-0---|
    
    Chorus
    
    Gtr.1
    
    |------5------5--------7-5-----------------5---------------
    |----5------5---5-----------7p5---5------5----5/7bu-5------
    |--7------7-------7--6----------6---6--5--------------5---
    |----------------------------------------------------------
    |----------------------------------------------------------
    |----------------------------------------------------------
    
    -------3----2h3-2------|
    -----3------------3----|
    -----------------------|
    --0--------------------|
    -----------------------|
    -----------------------|
    
    Gtr.2
    
    |---------------------------------------------|
    |---------------------------------------------|
    |-----0--------0----------0--------5~~~~~-----|
    |--0--------0--------0-0--------0-------------|
    |--5--------4--------3-3--------2-------------|
    |---------------------------------------------|
    
    Post-Chorus
    
    Gtr.2
    
    |-------------------|
    |-------------------|
    |--------0-----0----|
    |------4------4-----|
    |--0h5-----0h5------|
    |-------------------|
    
    Both Guitars
    
    |-----------------------------------------------|
    |-----------------------------------------------|
    |--5-5-5--5/9-9-9--9----------------------------|
    |--5-5-5--5/9-9-9--9-------Gtr.1-feedback-------|
    |--3-3-3--3/7-7-7--7----------------------------|
    |-----------------------------------------------|
    
    Shouty Bit
    
    Gtr.1
    
    |--5-5-5--5-5-5----7-5----------5-5-5--------3-3-3—2h3-2-0-
    |--7-5-5--7-5-5--5-5-5—7br-5----5-7-5—7br-5--3-3-3---------
    |--7-7-7--7-5-5--6-----------6--5-5-5--------0-0-0---------
    |--------------------------------------------0-0-0---------
    |----------------------------------------------------------
    |----------------------------------------------------------
    
    Gtr.2
    
    |---------------------------------------------------------|
    |---------------------------------------------------------|
    |--7-7-7--7-7-7--6-6-6--6-6-6--5-5-5--5-5-5--4-4-4--4-4-4-|
    |--7-7-7--7-7-7--6-6-6--6-6-6--5-5-5--5-5-5--4-4-4--4-4-4-|
    |--5-5-5--5-5-5--4-4-4--4-4-4--3-3-3--3-3-3--2-2-2--2-2-2-|
    |---------------------------------------------------------|
    
    Interlude
    
    Gtr.2
    
    |----------------------------------------------------
    |----------------------------------------------------
    |----------------------------------------------------
    |--------0-------0-------0-------0-------0-------0---
    |-----12------12------12------12------12------12-----
    |--14------14------14------14------13------13--------
    
    --------------------|----------------------|
    --------------------|----------------------|
    --------------------|---14------16-14-0----|
    --------0-------0---|------0---------------|
    -----12------12-----|--------12------------|
    --13------13--------|----------------------|
    
    2:30
    
    Gtr.1
    
    |------0------------------------------10-10---------------|
    |----5----/15-12---------------7-5-5--------12------------|
    |--7-------------14-11---------7-7-7-----------11p9-7/9---|
    |---------------------14-12-14----------------------------|
    |---------------------------------------------------------|
    |---------------------------------------------------------|
    
    Gtr.2
    
    |----------------------|
    |----------------------|
    |----------------------|
    |--7777777799994444----|
    |--7777777799994444----|
    |--5555555577772222----|
    
    Gtr.1
    
    |----------------------------------------------------------
    |----------------------------------------------------------
    |--7xxxx7-7-7xxxx7-7-5xxxx5-5-5xxxx5-5-9xxxx9-9-9xxxx9-9---
    |--6xxxx6-6-6xxxx6-6-xxxxxx-x-xxxxxx-x-xxxxxx-x-xxxxxx-x---
    |--5xxxx5-5-5xxxx5-5-3xxxx3-3-3xxxx3-3-7xxxx7-7-7xxxx7-7---
    |----------------------------------------------------------
    
    |---------------------------------------------------------|
    |--------------------------------8------------8-----------|
    |--5xxxx5-5-5xxxx5-5----------------7------------7--------|
    |--xxxxxx-x-xxxxxx-x---pause----------7--5---------7—5----|
    |--3xxxx3-3-3xxxx3-3--------------------------------------|
    |---------------------------------------------------------|
    
    Gtr.2
    
    |--------------------------------------------------------|
    |--------------------------------------------------------|
    |--11-x-1111-1111-x-1111-11111112-x-1212-1212-x-121212---|
    |---0-0--0-0--0-0-0--0-0--0-0-0-0-0--0-0--0-0-0--0-0-0---|
    |---9-x--9-9--9-9-x--9-9--9-9-910-x-1010-1010-x-101010---|
    |--------------------------------------------------------|
    
    Outro
    
    Gtr.1
    
    |-------------------------------|
    |-------------------------------|
    |-------------------------------|
    |--0---0-0---0-0---0-0---0-0----|
    |--5---3/5---3/5---3/5---3/5----|
    |-------------------------------|
    
    Gtr.2
    
    |-------------------------------|
    |-------------------------------|
    |--7-----9----11----12----14----|
    |--x-----x-----x-----x-----x----|
    |--5-----7-----9----10----12----|
    |-------------------------------|
     

    Тональность:

    Нет текста!



    Назад
    Рекомендуем посмотреть другие песни исполнителя «At The Drive-in»:

    • Комментарии Facebook ()
    • Комментарии ВКонтакте



    Добавить в Избранное Браузера
    Сохранить здесь Очистить


    x

    0


    +
    -

    +
    -

    -

    Авторизация





    Зарегистрироваться

    M

    Дата и время

    • 22:52:21
       

    Социальные ссылки


    Наши приложения

    • Muzbank App Play Market
    • Muzbank Amazon App