MUZBANK



A Most Complete Bank Of Music Information

МУЗЫКАЛЬНО-ИНФОРМАЦИОННЫЙ БАНК

Поиск по сайту







    AAtaris • Takeoffs And Landings (аккорды и текст - chords & lyrics)


    185

    Print

    Видео «Takeoffs And Landings (Ataris)»

    Видео клипы к песне подбираются автоматически сайтом youtube. Возможны некоторые несоответствия клипов песне.

    ↑ Спрятать рекламу ↑



    Download


     
    
    
    Ataris - Takeoffs And Landings 
    By:Andrew - 
    
    I thought the verson here was alright, but some of it was wrong...
    
    Intro
    e|---------------------------------------------------------------------------| 
    B|---------------------------------------------------------------------------| 
    G|--9-9-9-9-11-11-11-13-13-13-9-9-9-13-13-11-11-11/-13/14-/-9-9-14-14-14-14--| 
    D|--x-x-x-x-x--x--x--x--x--x--x-x-x-x--x--x--x---x--x---x---x-x-x--x--x--x---| 
    A|--7-7-7-7-9--9--9--11-11-11-7-7-7-11-11-9--9---9/-11/12/--7-7-12-12-12-12--| 
    E|---------------------------------------------------------------------------| 
    
    e|-------------------------------------------------------------------| 
    B|-------------------------------------------------------------------| 
    G|--13-13-13-11-11-11-9-9-14/13/14-11-11-11/13/14/16-16--/9-9-9-9----| 
    D|--x--x--x--x--x--x--x-x-x--x--x--x--x--x--x--x--x--x----x-x-x-x----| 
    A|--11-11-11-9--9--9--7-7-12/11/12-9--9--9-/11/12/14-14--/7-7-7-7----| 
    E|-------------------------------------------------------------------| 
    
    Verse
    e|---------------------------------------------------------| 
    B|---------------------------------------------------------| 
    G|-6-6-6-6-6-6-------------4-4-4-4-4-4---------------------| 
    D|-6-6-6-6-6-6-7-7-7-7-7-7-4-4-4-4-4-4-7-7-7-7-7-7-7-------| 
    A|-4-4-4-4-4-4-7-7-7-7-7-7-2-2-2-2-2-2-7-7-7-7-7-7-7-------| 
    E|-------------5-5-5-5-5-5-------------5-5-5-5-5-5-5-------| 
    Pm..................................................
    
    Pre-Chorus
    e|----------------------------------------------------------| 
    B|----------------------------------------------------------| 
    G|--------------------------7-------------------------------| 
    D|-----4---6---7-----2------7-----7-------4---6----7--------| 
    A|-----4---6---7-----2------5-----7-------4---6----7--------| 
    E|-----2---4---5-----0------------5-------2---4----5--------| 
    
    Chorus
    e|----------------------------| 
    B|----------------------------| 
    G|-----9-----6-----4----------| 
    D|-----9-----6-----4-----7----| 
    A|-----7-----4-----2-----7----| 
    E|-----------------------5----| 
    
    Bridge
    e|---------------------------------------------------------------------------| 
    B|---------------------------------------------------------------------------| 
    G|--11-11----13-/-11-/-9---14-14---13-/-11-/-9--------16--14--13----11/13/11-| 
    D|--x--x-----x----x----x---x--x----x----x----x--------x---x---x-----x--x--x--| 
    A|--9--9-----11-/-9--/-7---12-12---11-/-9--/-7--------14--12--11----9-/11/9--| 
    E|---------------------------------------------------------------------------| 
    
    e|---------------------------------------------------------------------------| 
    B|---------------------------------------------------------------------------| 
    G|-11-11--13-/-11-/-9----14-14---13-/-11-------------------------------------| 
    D|-x--x---x----x----x----x--x----x----x--------------------------------------| 
    A|-9--9---11-/-9--/-7----12-12---11-/-9--------------------------------------| 
    E|---------------------------------------------------------------------------|
     

    Тональность:

    Нет текста!



    Назад
    Рекомендуем посмотреть другие песни исполнителя «Ataris»:

    • Комментарии Facebook ()
    • Комментарии ВКонтакте



    Добавить в Избранное Браузера
    Сохранить здесь Очистить


    x

    0


    +
    -

    +
    -

    -

    Авторизация





    Зарегистрироваться

    M

    Дата и время

    • 10:09:34
       

    Социальные ссылки


    Наши приложения

    • Muzbank App Play Market
    • Muzbank Amazon App