MUZBANK



A Most Complete Bank Of Music Information

МУЗЫКАЛЬНО-ИНФОРМАЦИОННЫЙ БАНК

Поиск по сайту







    AAtreyu • Aint Love Grand (аккорды и текст - chords & lyrics)


    279

    Print

    Видео «Aint Love Grand (Atreyu)»

    Видео клипы к песне подбираются автоматически сайтом youtube. Возможны некоторые несоответствия клипов песне.

    ↑ Спрятать рекламу ↑



    Download



     
    
    
    This is an awesome song!!!!!
    
    Tuning= (down a whole step then dropp the D to a C ) CGCFAD
    
    Intro
    -------------------------------------------------------------
    -------------------------------------------------------------
    -------9-9-10-9------9-12-10-9--------9-9-10-9------9-10-9-7-
    --00---------------00-----------------00---------------00----
    -------------------------------------------------------------
    -------------------------------------------------------------
    
    Chorus(figure out the strumming yourself)
    ----------------------------
    ----------------------------
    --------------5---3---------
    -0-----3-----5---3----------
    -0-----3-----3---1----------
    -0-----3--------------------
    
    Verse
    figure out strumming
    ----------
    ---------- fill -2-2-3-0-
    ------5---
    ------3---
    ----------
    -00-------
    
    Pre Chorus
    figure out strummong
    ---------------------
    ---------------------
    -----------5-4-------
    -0-------------------
    -0-------------------
    -0-------------------
    
    Well thats pretty much it
    for the interlude just make somthing up with the intro
    Any comments, corrections, or questions email me at  
    PurpleDinosaur9@hotmail.com
    Have Fun!
     

    Тональность:

    Нет текста!



    Назад
    Рекомендуем посмотреть другие песни исполнителя «Atreyu»:

    • Комментарии Facebook ()
    • Комментарии ВКонтакте



    Добавить в Избранное Браузера
    Сохранить здесь Очистить


    x

    0


    +
    -

    +
    -

    -

    Авторизация





    Зарегистрироваться

    M

    Дата и время

    • 05:25:38
       

    Социальные ссылки


    Наши приложения

    • Muzbank App Play Market
    • Muzbank Amazon App