MUZBANK



A Most Complete Bank Of Music Information

МУЗЫКАЛЬНО-ИНФОРМАЦИОННЫЙ БАНК

Поиск по сайту







    AAudioslave • Bring Em Back Alive (аккорды и текст - chords & lyrics)


    169

    Print

    Видео «Bring Em Back Alive (Audioslave)»

    Видео клипы к песне подбираются автоматически сайтом youtube. Возможны некоторые несоответствия клипов песне.

    ↑ Спрятать рекламу ↑






     
    
    
    Audioslave - Bring Em Back Alive
    
    Tabbed By Stephen Pang (piequat@hotmail.com)
    
    Intro
    G|-----------------------------|
    D|----9---7h8------------------|
    A|----------------8---7--------|
    E|-7----7------7----7----7-10--|
    
    G|-----------------|
    D|-----------------|
    A|-----------------|
    E|-0-0-0-0-0-0-0-0-|
    
    Chorus
    G|----------------------------|----------------------------|
    D|----9---7h8-----------------|----7---6h7-----------------|
    A|----------------8---7----5--|-5----5-----5-7-8---7--5-7--|
    E|-7----7------7----7----7----|------------------7---------|
    
    G|----------------------------|
    D|----------------------------|
    A|-5-7-8---7--5-7-8---7--5-7--|  (ending to last 2 choruses)
    E|-------7----------7---------|
    
    Verse
    G|---------------------------|
    D|--------8------7--------5--|
    A|-7-5--x---7--x---7--x-x----|
    E|---------------------------|
    
    Pre-Solo
    G|-----------------|
    D|-----------------|
    A|-----------------|
    E|-7-7-7-7-7-7-7-7-|
    
    Solo
    G|-----------------------------|
    D|-9-7-9------9-7-9-----9-7-9--|
    A|-------7-8-------------------|
    E|------------------10---------|
    
    G|-----------------------------|
    D|---7-9--------7-9-------7-9--|
    A|-9-----7-8--9---------9------|
    E|------------------10---------|
    
    After Solo
    G|------------|
    D|------------|
    A|------------|
    E|-0-0--------|
    
    G|-----------------|
    D|-----------------|
    A|-----------------|
    E|-0-0-0-0-0-0-0-0-|
     

    Тональность:

    Нет текста!



    Назад
    Рекомендуем посмотреть другие песни исполнителя «Audioslave»:

    • Комментарии Facebook ()
    • Комментарии ВКонтакте



    Добавить в Избранное Браузера
    Сохранить здесь Очистить


    x

    0


    +
    -

    +
    -

    -

    Авторизация





    Зарегистрироваться

    M

    Дата и время

    • 06:51:03
       

    Социальные ссылки


    Наши приложения

    • Muzbank App Play Market
    • Muzbank Amazon App