MUZBANK



A MOST COMPLETE BANK OF MUSIC INFORMATION

МУЗЫКАЛЬНО-ИНФОРМАЦИОННЫЙ БАНК







    AAudioslave • Cochise (аккорды и текст - chords & lyrics)


    361

    Print

    Видео «Cochise (Audioslave)»

    Видео клипы к песне подбираются автоматически сайтом youtube. Возможны некоторые несоответствия клипов песне.

    ↑ Спрятать рекламу ↑






     
    
    
    Audioslave - Cochise
    
    Tabbed By Stephen Pang (piequat@hotmail.com)
    
    Intro (come in after a few bars)
    G|-----------------|
    D|-----------------|
    A|-----------------|
    E|-0-0-0-0-0-0-0-0-|
    
    Verse
    G|--------------------------------|
    D|-0/2--------------0/2-----------|
    A|-----5-2-5-2-----------5-2------|
    E|-------------3-0-----------3-0--|
    
    Chorus
    G|-------|------------------------|
    D|-0--1--|-2--2-----------------0-|
    A|-0--1--|--------------------2---|
    E|-------|-------5-3-0--3--5------|
    
    Bridge
    G|------------|------------|----|
    D|------------|------------|----|
    A|-2----2-----|-7----7-----|-5--|
    E|----0----0--|----0----0--|----|
     

    Тональность:

    Это должно быть в ТОП-листе! - Топ-лист композиций



    Назад
    Рекомендуем посмотреть другие песни исполнителя «Audioslave»:

    • Комменты Fb ()
    • Комменты ВК



    Добавить в Избранное Браузера
    Сохранить здесь Очистить


    x

    0


    +
    -

    +
    -

    -

    Авторизация





    Зарегистрироваться

    M

    Дата и время

    • 10:34:06
       

    Социальные ссылки


    Наши приложения

    • Muzbank App Play Market
    • Muzbank Amazon App