MUZBANK



A Most Complete Bank Of Music Information

МУЗЫКАЛЬНО-ИНФОРМАЦИОННЫЙ БАНК








    AAudioslave • Cochise (аккорды и текст - chords & lyrics)


    216

    Print

    Видео «Cochise (Audioslave)»

    Видео клипы к песне подбираются автоматически сайтом youtube. Возможны некоторые несоответствия клипов песне.

    ↑ Спрятать рекламу ↑






     
    
    
    Artist:Audioslave
    Song:Cochise(bass)
    Tab By:James Burrell
    
    
    Intro (come in after a few bars)
    G|-----------------|
    D|-----------------|
    A|-----------------| x24
    E|-0-0-0-0-0-0-0-0-|
    
    Verse
    G|--------------------------------------|
    D|--------------------------------------| x11
    A|----5/7---5---5---------5/7 5---------|
    E|------------7---3--0----------7-3--0--|
    
    Chorus
    G|-------|------------------------|
    D|-------|------------------------| x4
    A|-5--6--|---7--7-------------5---|
    E|-------|--------5-3-0-3-5-7-----|
    
    Bridge  x4          x4
    G|------------|------------|----|
    D|------------|------------|----|
    A|-2----2-----|-7----7-----|-5--|
    E|----0----0--|----0----0--|----|
    
               Im pretty Sure that thats It almost exactly. e-mail me at Drunk_Polarbear@hotmail.com
    	    if you think i need to fix anything or if you have any other comments.
     

    Тональность:

    Нашли ошибку?



    Назад
    Рекомендуем посмотреть другие песни исполнителя «Audioslave»:

    • Комменты Fb ()
    • Комменты ВК



    Добавить в Избранное Браузера
    Сохранить здесь Очистить


    x

    0


    +
    -

    +
    -

    -

    Авторизация





    Зарегистрироваться

    M

    Дата и время

    • 14:05:40
       

    Социальные ссылки


    Наши приложения

    • Muzbank App Play Market
    • Muzbank Amazon App