MUZBANK



A Most Complete Bank Of Music Information

МУЗЫКАЛЬНО-ИНФОРМАЦИОННЫЙ БАНК

Поиск по сайту







    AAudioslave • Gasoline (аккорды и текст - chords & lyrics)


    239

    Print

    Видео «Gasoline (Audioslave)»

    Видео клипы к песне подбираются автоматически сайтом youtube. Возможны некоторые несоответствия клипов песне.

    ↑ Спрятать рекламу ↑



    Download



     
    
    
    Gasoline; Audioslave
    
    Audioslave
    
    
    Dropped B tuning
    
    
                            x3                                      x3
    E------|------------------|----------------|----------------------|
    B------|------------------|----------------|----------------------|
    G------|------------------|----------------|----------------------|
    D------|------------------|----------------|----------------------|
    A------|------------------|-------------2--|----------------------|
    B--12-|-0-3h5-0-10h12-12-|-5-5-3-3-5-3-0--|0-0-3h5-0-10h12-12-12p|
    
    
    Verse
    With stuttering tremelo and wah
    
                    x3
    E------|-----------|-----------|
    B------|-------5-4-|-----------|
    G------|4---(4)----|-------9-8-|
    D------|4---(4)----|7---(7)----|
    A------|2---(2)----|7---(7)----|
    B------|-----------|10--(10)---|
    
    
    Chorus
                                x3                  x3
    E------|----------------------|-------------------|---------------|
    B------|----------------------|-------------------|---------------|
    G------|----------------------|-------------------|---------------|
    D------|----------------------|-------------------|---------------|
    A------|----------------------|--------5p2p0---0h2|------------2--|
    B-/12-|0-0-3h5-0-10h12-12-12p|0-0-3h5------5p3---|5-5-3-3-5-3-0--|
    
    
    2nd Chorus
    
                                x3                  x3  b up 1/4 step
    E------|----------------------|-------------------|---------------|
    B------|----------------------|-------------------|---------------|
    G------|----------------------|-------------------|---------------|
    D------|----------------------|-------------------|---------------|
    A------|----------------------|--------5p2p0---0h2|2-0------------|
    B-/12-|0-0-3h5-0-10h12-12-12p|0-0-3h5------5p3---|----7-5-3b-3b-0|
    
    
    Interlude
    
                         x7
    E--|-------------------|----------------------|
    B--|0-0-3h5-0-10h12-12-|0-10h12-12-0-10h12-12-|
    G--|-------------------|----------------------|
    D--|-------------------|----------------------|
    A--|-------------------|----------------------|
    B--|-------------------|----------------------|
    
    
    Solo
    
    
    here goes;
    
    need to harmonize an octave lower, distortion, and wah. 
    Preferably in this order, especially the wah being AFTER 
    distortion.
    
                               x3                 x2
    E--|-------------------------|------------------|
    B--|-------------------------|5b(7)5-3-5b(7)5-3-| Repeat, then repeat
    G--|4p2-4-0-4-2-4---2-4h5p4-0|------------------| last measure x24.
    D--|-------------------------|------------------| (12 bars)
    A--|-------------------------|------------------|
    B--|-------------------------|------------------|
    
    
    Repeat 2nd Chorus
    
    
    Outro
    
    
    E--|-------------------|------------------|
    B--|-------------------|------------------|
    G--|-------------------|------------------| Repeat
    D--|-------------------|------------------|
    A--|-------------------|------------------|
    B--|0-0-3h5-0-10h12-12-|12-10-7-5-3b-3b-0-|
     

    Тональность:

    Нет текста!



    Назад
    Рекомендуем посмотреть другие песни исполнителя «Audioslave»:

    • Комментарии Facebook ()
    • Комментарии ВКонтакте



    Добавить в Избранное Браузера
    Сохранить здесь Очистить


    x

    0


    +
    -

    +
    -

    -

    Авторизация





    Зарегистрироваться

    M

    Дата и время

    • 15:37:49
       

    Социальные ссылки


    Наши приложения

    • Muzbank App Play Market
    • Muzbank Amazon App