MUZBANK



A Most Complete Bank Of Music Information

МУЗЫКАЛЬНО-ИНФОРМАЦИОННЫЙ БАНК

Поиск по сайту







    AAudioslave • Getaway Car (аккорды и текст - chords & lyrics)


    322

    Print

    Видео «Getaway Car (Audioslave)»

    Видео клипы к песне подбираются автоматически сайтом youtube. Возможны некоторые несоответствия клипов песне.

    ↑ Спрятать рекламу ↑



    Download


     
    
    
    by:josh
    band:Audioslave
    album:Audioslave
    song:Getaway Car
    tuning:E A D G B E
    date:November 31, 2002
    
    great song off their debut album....by the way this solo 
    took what seemed like f*ckin forever....
    
    key:
    slide up = su
    slide down = sd
    bend = b
    slight bend = sb
    let ring = ~
    
    intro/verse : clean
    E-------------------15sd---------------------12sd-
    B-10~-11~-15~-13~----------10~-11~-15~-13~--------
    G-------------------------------------------------
    D--7~--8~-12~-10~-----------7~--8~-12~-10~--------
    A-------------------------------------------------
    E-------------------------------------------------
    
    guitar 2 in background fades in towards the end of 
    the second verse just repeat several times
    E------
    B------
    G------
    D-9b---
    A------
    E------
    
    chorus : clean
    E-----------------------------------
    B-----------------------------------
    G-2~---4-5-4-------7-2-4-5-2~-5-5-4-
    D------------5--7-------------------
    A-0~---2-3-2-------5-0-2-3-0~-3-3-2-
    E------------3--5-------------------
    
    solo : clean maybe a lil reverb i dont know
    E------------------------------------------------------------
    B------------------------------------------------------------
    G--------------------------------------------12b-12b-12b-12b-
    D-2su-7-9-10-7--------7-h-10-7--7-10-9--9-10-12b-12b-12b-12b-
    A--------------7-h-10----------------------------------------
    E------------------------------------------------------------
    
    E-------------------------------------------------------------
    B-------------------------------------------------------------
    G-------12b-12b-12b-12b-------12-12b-12b-------12----------12-
    D-14-12-12b-12b-12b-12b-12-14----12b-12b-12-14----14-12-14----
    A-------------------------------------------------------------
    E-------------------------------------------------------------
    
    E----------------------------------------
    B-----------------------------------12sb-
    G-14b-12-------14b-12-------------9------
    D--------14-12--------14-12----10--------
    A---------------------------12-----------
    E----------------------------------------
    
    outro
    E-------------------15sd-------------------
    B-10~-11~-15~-13~----------10~-11~-15~-13~-
    G------------------------------------------
    D--7~--8~-12~-10~-----------7~--8~-12~-10~-
    A------------------------------------------
    E---------------------------------------8~-
    
    order:
    intro/verse 3x
    chorus 2x
    intro/verse 3x
    chorus 2x
    intro/verse 2x
    solo 1x
    chorus 2x
    intro/verse 2x
    outro 1x
     

    Тональность:

    Нет текста!



    Назад
    Рекомендуем посмотреть другие песни исполнителя «Audioslave»:

    • Комментарии Facebook ()
    • Комментарии ВКонтакте



    Добавить в Избранное Браузера
    Сохранить здесь Очистить


    x

    0


    +
    -

    +
    -

    -

    Авторизация





    Зарегистрироваться

    M

    Дата и время

    • 11:10:04
       

    Социальные ссылки


    Наши приложения

    • Muzbank App Play Market
    • Muzbank Amazon App