MUZBANK



A Most Complete Bank Of Music Information

МУЗЫКАЛЬНО-ИНФОРМАЦИОННЫЙ БАНК

Поиск по сайту







    AAudioslave • Show Me How To Live (аккорды и текст - chords & lyrics)


    209

    Print

    Видео «Show Me How To Live (Audioslave)»

    Видео клипы к песне подбираются автоматически сайтом youtube. Возможны некоторые несоответствия клипов песне.

    ↑ Спрятать рекламу ↑



    Download



     
    
    
    Show me how to live by Audioslave
    Tuning-G,D,A,D
    
    (0.21)
    G:-----------------2h3p2--2-----0---------------------|
    D:--------------------------2-2---0-------------------|  x6
    A:----------------------------------------------------|
    D:0-0-2--0-2--0-2----------------------0-0-2--0-2--0-2|
    
    G:------------------|
    D:------------------|  x8
    A:---------------3--|
    D:0-2--0h2-0h2-2---2|
    
    G:-----------------2h3p2--2-----0---------------------|
    D:--------------------------2-2---0-------------------|  x2
    A:----------------------------------------------------|
    D:0-0-2--0-2--0-2----------------------0-0-2--0-2--0-2|
    
    G:------------------|
    D:------------------|  x8
    A:---------------3--|
    D:0-2--0h2-0h2-2---2|
    
    G:------------------|
    D:--2/--------------|  x3
    A:-----1h2-1h2------|
    D:2------------2-2-0|
    
    G:------------------|
    D:--2/-----0-0------|
    A:-----2-2----------|
    D:2-----------------|
    
    G:------------------|
    D:------------------|  x3
    A:2/---1h2-1h2------|
    D:---2---------2-2-0|
    
    G:------------------|
    D:-----0-0-1-1-2~---|
    A:2/----------------|
    E:---2--------------|
    
    (3.16)
    G:------------------|
    D:------------------|  x2
    A:------------------|
    E:0-2--2-0--0-2-2---|
    
    G:------------------|
    D:------------------|  x8
    A:---------------3--|
    D:0-2--0h2-0h2-2---2|
    
    (Outro)
    G:---------------|
    D:---------------|  x2
    A:---------------|
    D:2~--2~--2~--2~-|
    
    Thanks, please rate it after you learn it.
    Tabbed by:
    _TheBassist01_
     

    Тональность:

    Нет текста!



    Назад
    Рекомендуем посмотреть другие песни исполнителя «Audioslave»:

    • Комментарии Facebook ()
    • Комментарии ВКонтакте



    Добавить в Избранное Браузера
    Сохранить здесь Очистить


    x

    0


    +
    -

    +
    -

    -

    Авторизация





    Зарегистрироваться

    M

    Дата и время

    • 15:41:42
       

    Социальные ссылки


    Наши приложения

    • Muzbank App Play Market
    • Muzbank Amazon App