MUZBANK



A Most Complete Bank Of Music Information

МУЗЫКАЛЬНО-ИНФОРМАЦИОННЫЙ БАНК

Поиск по сайту







    AAudiovent • Looking Down (аккорды и текст - chords & lyrics)


    278

    Print

    Видео «Looking Down (Audiovent)»

    Видео клипы к песне подбираются автоматически сайтом youtube. Возможны некоторые несоответствия клипов песне.

    ↑ Спрятать рекламу ↑



    Download


     
    
    
    Audiovent - Looking Down
    Submitted By: Ben
    EMail: ghight@midsouth.rr.com
    
    
    Intro [Clean)] 
    e:---------------------------------------------------------------------------------
    B:---------------------------------------------------------------------------------
    G:14--14--14--14--13--13--13--13--13---------10--10--10---9---9---9---9---9--------
    D:14--14--14--14--14--14--14--14--14---0--0--10--10--10--10--10--10--10--10----3--0 
    A:12--12--12--12--12--12--12--12--12---0--0---8---8---8---8---8---8---8---8----3--0 
    D:12--12--12--12--12--12--12--12--12---0--0---8---8---8---8---8---8---8---8----3--0 
    
    e:------------------------------------------------------------------------------
    B:------------------------------------------------------------------------------
    G:14--14--14--13--13--13--13--13----------7---7---7---8---8---8---8---8--------- 
    D:14--14--14--14--14--14--14--14---0--0---8---8---8---8---8---8---8---8----8--0-
    A:12--12--12--12--12--12--12--12---0--0---6---6---6---6---6---6---6---6----8--0-
    D:12--12--12--12--12--12--12--12---0--0---6---6---6---6---6---6---6---6----8--0-
    
    Intro/Chorus [Distortion] 
    e:---------------------------------------------------------------------------------
    B:---------------------------------------------------------------------------------
    G:14--14--14--14--14--14--14--14--14----------------------------------------------- 
    D:14--14--14--14--14--14--14--14--14---0--0---8---8---8---8---8---8---8---8----3--0 
    A:12--12--12--12--12--12--12--12--12---0--0---8---8---8---8---8---8---8---8----3--0 
    D:12--12--12--12--12--12--12--12--12---0--0---8---8---8---8---8---8---8---8----3--0 
    
    e:--------------------------------------------------------------------- 
    B:---------------------------------------------------------------------
    G:7--7--7--7--7--7--7--7----------7---7---7---8---8---8---8---8--------
    D:7--7--7--7--7--7--7--7---0--0---8---8---8---8---8---8---8---8----8--0 
    A:5--5--5--5--5--5--5--5---0--0---6---6---6---6---6---6---6---6----8--0 
    D:0--0--0--0--0--0--0--0---0--0---6---6---6---6---6---6---6---6----8--0 
    
    Verse 
    e:--17-----------------------------------10-------- [Slow Delay] 
    B:--15--------------------------------------------- 
    G:--14--------------------------------------------- 
    D:---0--------------------------------------------- 
    A:-------------------------------------------------
    D:-------------------------------------------------
    
    2nd Half of Verse 
    e:---------0------------0-----------0-----------------------------------------------------------
    B:---------0------------0-----------0---------------------10-10-10-10-10--10--------------------
    G:----5----5-------7----7-----------9-----------------------------------------------------------
    D:3--------3---5--------5----7------7---------8-8-8-8-8----7--7--7--7--7---7--------------------
    A:--------------------------------------------8-8-8-8-8----------------------------------------- 
    D:--------------------------------------------8-8-8-8-8----------------------------------------- 
    
    2nd Half of Verse
    e:--------------------------------------------------- 
    B:--------------------------------------------------- 
    G:8-8-8-8-8-----10--10-10--10--10--10----------------
    D:8-8-8-8-8------7---7--7---7---7---7----------------
    A:8-8-8-8-8------------------------------------------
    D:8-8-8-8-8------------------------------------------
    
    
    2nd Half of Verse: 
    e:---------------------------0-----------------------
    B:------------10-10-10-10--------------0------------- 
    G:-------------------------------------0------------- 
    D:8-8-8-8-8----7--7--7--7----------------------------
    A:8-8-8-8-8------------------------------------------
    D:8-8-8-8-8------------------------------------------
    
    
    Bridge: 
    e:-----------------------------------------------------------------------
    B:-----------------------------------------------------------------------
    G:-----------------------------------------------------------------------
    D:1-1-1-0-1----1-1-1-0-1----1-1-1-0----1-1-1-0-1----1-1-1-0-1----1-1-1-0- 
    A:1-1-1-0-1----1-1-1-0-1----1-1-1-0----1-1-1-0-1----1-1-1-0-1----1-1-1-0- 
    D:1-1-1-0-1----1-1-1-0-1----1-1-1-0----1-1-1-0-1----1-1-1-0-1----1-1-1-0- 
    
    e:------------------------------------- 
    B:------------------------------------- 
    G:3-3-3-0-3----3-3-3-0-3----3-3-3-0---- 
    D:3-3-3-0-3----3-3-3-0-3----3-3-3-0---- 
    A:1-1-1-0-1----1-1-1-0-1----1-1-1-0---- 
    D:3-3-3-0-3----3-3-3-0-3----3-3-3-0---- 
    
    e:------------------------------------- 
    B:------------------------------------- 
    G:3-3-3-0-3----3-3-3-0-3----3-3-3-0---- 
    D:3-3-3-0-3----3-3-3-0-3----3-3-3-0---- 
    A:1-1-1-0-1----1-1-1-0-1----1-1-1-0---- 
    D:3-3-3-0-3----3-3-3-0-3----3-3-3-0---- 
    
    e:------------------------------------------------------------------------------
    B:------------------------------------------------------------------------------
    G:12-12-12-12-12----12-12-12-11-----11-11-11-11-11-----12-12-12-12-12-----12-12- 
    D:12-12-12-12-12----12-12-12-12-----12-12-12-12-12-----12-12-12-12-12-----12-12- 
    A:10-10-10-10-10----10-10-10-10-----10-10-10-10-10-----10-10-10-10-10-----10-10- 
    D:10-10-10-10-10----10-10-10-10-----10-10-10-10-10-----10-10-10-10-10-----10-10- 
    
    E:----------------
    B:----------------
    G:5-5-5-5-5-5-5-5- 
    B:5-5-5-5-5-5-5-5- 
    A:3-3-3-3-3-3-3-3- 
    D:5-5-5-5-5-5-5-5-
     

    Тональность:

    Нет текста!



    Назад
    Рекомендуем посмотреть другие песни исполнителя «Audiovent»:

    • Комментарии Facebook ()
    • Комментарии ВКонтакте



    Добавить в Избранное Браузера
    Сохранить здесь Очистить


    x

    0


    +
    -

    +
    -

    -

    Авторизация





    Зарегистрироваться

    M

    Дата и время

    • 01:17:05
       

    Социальные ссылки


    Наши приложения

    • Muzbank App Play Market
    • Muzbank Amazon App