MUZBANK



A Most Complete Bank Of Music Information

МУЗЫКАЛЬНО-ИНФОРМАЦИОННЫЙ БАНК

Поиск по сайту







    AAutopilot Off • Long Way To Fall (аккорды и текст - chords & lyrics)


    256

    Print

    Видео «Long Way To Fall (Autopilot Off)»

    Видео клипы к песне подбираются автоматически сайтом youtube. Возможны некоторые несоответствия клипов песне.

    ↑ Спрятать рекламу ↑



    Download



     
    
    
    standard tuning
    
    e|--------------------------------------------------| 
    B|--------------------------------------------------|
    G|------------4-44--4-444444--------4-44--4-444444--|
    D|-xxx--4-44--2-22--4-444444--4-44--2-22--4-444444--|
    A|-xxx--4-44--------2-222222--4-44--------2-222222--|
    E|-xxx--2-22------------------2-22------------------| x2
    
    Verses 1&2                         
    e|--------------------|---------|    |---------|
    B|--------------------|---------|    |---------|
    G|--------------------|-4444444-| or |-9999999-|
    D|--44----44----44----|-2222222-|    |-9999999-|
    A|--44----44----44----|---------|    |-7777777-|
    E|--22----22----22----|---------|    |---------| x2
    
    e|---------------------------------|---------|    |---------|
    B|---------------------------------|---------|    |---------|
    G|---------------------------------|-444-444-| or |-999-444-|
    D|--44-xxxxxx-44-xxxxxx-44-xxxxxx--|-222-444-|    |-999-444-|
    A|--44-xxxxxx-44-xxxxxx-44-xxxxxx--|-----222-|    |-777-222-|
    E|--22-xxxxxx-22-xxxxxx-22-xxxxxx--|---------|    |---------| x2
    
    Chorus
    e|----------------------------------------------------------------------------
    B|----------------------------------------------------------------------------
    G|------------------------------------4444444444444444------------------------
    D|--7777777777777777-2222222222222222-4444444444444444-4444444444444444--222--
    A|--7777777777777777-2222222222222222-2222222222222222-4444444444444444--222--
    E|--5555555555555555-0000000000000000------------------2222222222222222--000--
    
    ----------------------|
    ----------------------|
    ----------------------|
    --7777777777777777-2--|
    --7777777777777777-2--|
    --5555555555555555-0--|
    
    e|----------------------------------------------| 
    B|----------------------------------------------|
    G|--------4-44--4-444444--------4-44--4-444444--|
    D|--4-44--2-22--4-444444--4-44--2-22--4-444444--|
    A|--4-44--------2-222222--4-44--------2-222222--|
    E|--2-22------------------2-22------------------| x2
    After playing this once, start over with verse 2
    
    e|-----------------------------------------------|------------|    |------------|
    B|-----------------------------------------------|------------|    |------------|
    G|-------------------4-44--4-44------------------|-4-44--4-44-| or |-9-99--4-44-|
    D|--4----------------2-22--4-44--4---------------|-2-22--4-44-|    |-9-99--4-44-|
    A|--4----------------------2-22--4---------------|-------2-22-|    |-7-77--2-22-|
    E|--2----------------------------2---------------|------------|    |------------| x2
    
    Guitar 1 - solo
    I dont know if this is actually right, but try it. it sounds pretty cool.
    
    e|--------------------------------------------------7--7-7--5-7-5-7--| x2
    B|--7--7-7-7--5-7-5-7--7-7-7--5-7-5-7--7-7-7--5-7-5------------------|
    G|-------------------------------------------------------------------|
    D|-------------------------------------------------------------------|
    A|-------------------------------------------------------------------|
    E|-------------------------------------------------------------------|
    
    Guitar 2
    e|------------------------|------------|    |------------|
    B|------------------------|------------|    |------------|
    G|------------------------|-4-44--4-44-| or |-9-99--4-44-|
    D|--444444444444444444444-|-2-22--4-44-|    |-9-99--4-44-|
    A|--444444444444444444444-|-------2-22-|    |-7-77--2-22-|
    E|--222222222222222222222-|------------|    |------------| x2
    
    e|----------------------------------------------------------------------------------------|
    B|----------------------------------------------------------------------------------------|
    G|------------------------------------4444444444444444------------------------------------|
    D|--7777777777777777-2222222222222222-4444444444444444-4444444444444444--222---77----2----|
    A|--7777777777777777-2222222222222222-2222222222222222-4444444444444444--222---77----2----|
    E|--5555555555555555-0000000000000000------------------2222222222222222--000---55----0----|
       [- - - - - - - - - - - - - - - Palm Muted  - - - - - - - - - - - - - - - ]
    
    e|----------------------------------------------| 
    B|----------------------------------------------|
    G|--------4-44--4-444444--------4-44--4-444444--|
    D|--4-44--2-22--4-444444--4-44--2-22--4-444444--|
    A|--4-44--------2-222222--4-44--------2-222222--|
    E|--2-22------------------2-22------------------| x4
    
    
    =-=-=-=-=-=-=-=-=-=-=-=-=-=-=-=-=-=-=-=-=-=-=-=-=-=-=-=-=-=-=-=-=-=-=-=-=-=-=-=-=-=-=-=-=-=
     

    Тональность:

    Нет текста!



    Назад
    Рекомендуем посмотреть другие песни исполнителя «Autopilot Off»:

    • Комментарии Facebook ()
    • Комментарии ВКонтакте



    Добавить в Избранное Браузера
    Сохранить здесь Очистить


    x

    0


    +
    -

    +
    -

    -

    Авторизация





    Зарегистрироваться

    M

    Дата и время

    • 16:51:49
       

    Социальные ссылки


    Наши приложения

    • Muzbank App Play Market
    • Muzbank Amazon App