MUZBANK



A Most Complete Bank Of Music Information

МУЗЫКАЛЬНО-ИНФОРМАЦИОННЫЙ БАНК

Поиск по сайту







    AAutopilot Off • Looking Up (аккорды и текст - chords & lyrics)


    228

    Print

    Видео «Looking Up (Autopilot Off)»

    Видео клипы к песне подбираются автоматически сайтом youtube. Возможны некоторые несоответствия клипов песне.

    ↑ Спрятать рекламу ↑



    Download


     
    
    
    ----------------------------------------------------------------------
                                   Autopilot Off - Looking up
    ----------------------------------------------------------------------
    Tabbed By:сйsаr Winder.
    
    Standard Tuning: EADGBE
    		
    Intro
    e|----------------------------------|
    b|----------------------------------|
    g|----9p7-------9xxxxx--9xxxxx------|
    d|---------9----9xxxxx--9xxxxx------|
    a|--------------7xxxxx--7xxxxx------|
    e|----------------------------------|
    
    Intro 2
    e|------------------------------------------------------------|
    b|------------------------------------------------------------|
    g|-999--11-11-11---13-13-13---14-14-14---13-13-13---11-11-11--|
    d|-xxx--xx-xx-xx---xx-xx-xx---xx-xx-xx---xx-xx-xx---xx-xx-xx--|
    a|-777--9--9--9----11-11-11---12-12-12---11-11-11---9--9--9---|
    e|------------------------------------------------------------|
    
    
    e|------------------------------------------------------------|
    b|------------------------------------------------------------|
    g|-999--11-11-11---13-13-13---14-14-14---13-13-13---16-16-16--|
    d|-xxx--xx-xx-xx---xx-xx-xx---xx-xx-xx---xx-xx-xx---xx-xx-xx--|
    a|-777--9--9--9----11-11-11---12-12-12---11-11-11---14-14-14--|
    e|------------------------------------------------------------|
    
    Verse
    e|--------------------------------------|
    b|--------------------------------------|
    g|-9xxx---------------9xxx--------------|
    d|-9xxx--7xxx--11xxx--9xxx--7xxx--9xxx--|
    a|-7xxx--7xxx--11xxx--7xxx--7xxx--9xxx--|
    e|-------5xxx--9xxx---------5xxx--7xxx--|
    
    
    Chorus
    e|-------------------------------------------------|
    b|-------------------------------------------------|
    g|--------------999-----(x)3-----------------------|
    d|-11x11x11x11--999--999-----77777777---999999999--|
    a|-11x11x11x11--777--999---- 77777777---999999999--|
    e|-9x-9x-9x-9--------777-----55555555---777777777--|	
                              pm.... .. . ......
    
    Solo
    e|-------------------------------------------------------------------------------------------|
    b|-------------------------------------------------------------------------------------------|
    g| 9h1113-14-13-13p119-16-14-13p119-14-13-13p119-16-14-131413141314131413-11--9----------|
    d|-------------------------------------------------------------------------------------------|
    a|-------------------------------------------------------------------------------------------|
    e|-------------------------------------------------------------------------------------------|
    
    Verse
    e|--------------------------------------|
    b|--------------------------------------|
    g|-9xxx---------------9xxx--------------|
    d|-9xxx--7xxx--11xxx--9xxx--7xxx--9xxx--|
    a|-7xxx--7xxx--11xxx--7xxx--7xxx--9xxx--|
    e|-------5xxx--9xxx---------5xxx--7xxx--|
    
    Chorus
    e|------------------------------------------------------------|
    b|------------------------------------------------------------|
    g|--------------999-----(x)3----------------------------------|
    d|-11x11x11x11--999--999-----77777777---999999999--9~-----9~--|
    a|-11x11x11x11--777--999---- 77777777---999999999--9~-----9~--|
    e|-9x-9x-9x-9--------777-----55555555---777777777--7~-----7~--|	
                               pm........   .........
    
    Interlude
    e|----------------------------|
    b|----------------------------|
    g|-9--11-13--14--13--11-9/14--|
    d|-x--x--x---x---x---x--x-x---|
    a|-7--9--11--12--11--9--7/16--|
    e|----------------------------|
    
    
    e|------------------------------------------------------------|
    b|------------------------------------------------------------|
    g|-999--11-11-11---13-13-13---14-14-14---13-13-13---11-11-11--|
    d|-xxx--xx-xx-xx---xx-xx-xx---xx-xx-xx---xx-xx-xx---xx-xx-xx--|
    a|-777--9--9--9----11-11-11---12-12-12---11-11-11---9--9--9---|
    e|------------------------------------------------------------|
    
    
    e|------------------------------------------------------------|
    b|------------------------------------------------------------|
    g|-999--11-11-11---13-13-13---14-14-14---13-13-13---16-16-16--|
    d|-xxx--xx-xx-xx---xx-xx-xx---xx-xx-xx---xx-xx-xx---xx-xx-xx--|
    a|-777--9--9--9----11-11-11---12-12-12---11-11-11---14-14-14--|
    e|------------------------------------------------------------|
    
    
    e|-----------------------------------------------------------------|
    b|-----------------------------------------------------------------|
    g|-999--11-11-11---13-13-13---14-14-14---13-13-13---11-11-11---9~--|
    d|-xxx--xx-xx-xx---xx-xx-xx---xx-xx-xx---xx-xx-xx---xx-xx-xx---9~--|
    a|-777--9--9--9----11-11-11---12-12-12---11-11-11---9--9--9----7~--|
    e|-----------------------------------------------------------------|
    
    Any question:cesarw@punkmusic.com
     

    Тональность:

    Нет текста!



    Назад
    Рекомендуем посмотреть другие песни исполнителя «Autopilot Off»:

    • Комментарии Facebook ()
    • Комментарии ВКонтакте



    Добавить в Избранное Браузера
    Сохранить здесь Очистить


    x

    0


    +
    -

    +
    -

    -

    Авторизация





    Зарегистрироваться

    M

    Дата и время

    • 01:28:05
       

    Социальные ссылки


    Наши приложения

    • Muzbank App Play Market
    • Muzbank Amazon App