MUZBANK



A Most Complete Bank Of Music Information

МУЗЫКАЛЬНО-ИНФОРМАЦИОННЫЙ БАНК

Поиск по сайту







    AAutopilot Off • Nothing Frequency (аккорды и текст - chords & lyrics)


    253

    Print

    Видео «Nothing Frequency (Autopilot Off)»

    Видео клипы к песне подбираются автоматически сайтом youtube. Возможны некоторые несоответствия клипов песне.

    ↑ Спрятать рекламу ↑



    Download



     
    
    
    Autopilot Off - Nothing Frequency
    Album: Autopilot Off EP
    Tuning: E A D G B E
    Tabbed By: Dean K. (projectwyze13@hotmail.com)
    
    Intro/Chorus
    E-------------------------------------------------------------
    B-------------------------------------------------------------
    G---77---77777777---99---77777777---99---1111---999---77777777
    D---77---77777777---99---77777777---99---1111---999---77777777
    A---55---55555555---77---55555555---77---9--9---999---55555555
    E-------------------------------------------------------------
    
    Verse
    E-----------------------------------------------
    B-----------------------------------------------
    G---77---77---77---1212121212121212-------------
    D---77---77---77---1212121212121212-------------
    A---55---55---55---1010101010101010-------------
    E-----------------------------------------------
    
    Bridge
    E---------------------------------------------------
    B---------------------------------------------------
    G---77---xxxx---77---xxxx---77---xxxxxxxx-----------
    D---77---xxxx---77---xxxx---77---xxxxxxxx-----------
    A---55---xxxx---55---xxxx---55---xxxxxxxx-----------
    E---------------------------------------------------
    
    Outro
    E--------------------------------
    B--------------------------------
    G---777---77---77----------------
    D---777---77---77----------------
    A---555---55---55----------------
    E--------------------------------
     

    Тональность:

    Нет текста!



    Назад
    Рекомендуем посмотреть другие песни исполнителя «Autopilot Off»:

    • Комментарии Facebook ()
    • Комментарии ВКонтакте



    Добавить в Избранное Браузера
    Сохранить здесь Очистить


    x

    0


    +
    -

    +
    -

    -

    Авторизация





    Зарегистрироваться

    M

    Дата и время

    • 19:25:30
       

    Социальные ссылки


    Наши приложения

    • Muzbank App Play Market
    • Muzbank Amazon App