MUZBANK



A Most Complete Bank Of Music Information

МУЗЫКАЛЬНО-ИНФОРМАЦИОННЫЙ БАНК

Поиск по сайту







    AAvenged Sevenfold • Darkness Surrounding (аккорды и текст - chords & lyrics)


    315

    Print

    Видео «Darkness Surrounding (Avenged Sevenfold)»

    Видео клипы к песне подбираются автоматически сайтом youtube. Возможны некоторые несоответствия клипов песне.

    ↑ Спрятать рекламу ↑



    Download


     
    
    
    e:-------------------|-------------------------| 
    B:-------------------|-------------------------| 
    G:---5---7---9--(x2)-|--5x---------------------| 
    D:---5---7---9-------|--5x---------------------| 
    A:---3---5---7-------|--3x---------------------| 
    D:-------------------|---------pick slide----| 
    
    
    
    0:15 Riff A x8 
    e:--------------------| 
    B:--------------------| 
    G:--------------------| 
    D:--2-2--2h3p2-0-3----| 
    A:--------------------| 
    D:--------------------| 
    
    0:25 (repeat intro riff) 
    
    0:39 (repeat Riff A) x8 
    
    
    0:49 Riff B x8 
    e:--------------------------------------| 
    B:--------------------------------------| 
    G:--------------------------------------| 
    D:---2-2--2h3p2-0-3---2-2--2h3p2-0-3----| 
    A:---2-2--------------2-2---------------| 
    D:---2-2--------------2-2---------------| 
    
    
    
    0:58 Riff C 
    ...... ...... x2 
    e:-----------------------------------------------------------| 
    B:-------------------------------------------------5/8--7*---| 
    G:------------------4/5-4--------------------4/5-4-----------| 
    D:------22222222--2-------4-5*---22222222--2-----------------| 
    A:------22222222-----------------22222222--------------------| 
    D:------22222222-----------------22222222--------------------| 
    
    
    
    1:08 Riff D . . . . . . . 
    e:--------------------------------------------------| 
    B:--------------------------------------------------| 
    G:--------------------------------------------------| 
    D:----2-3-3--3p1--3-3----2-3-3-3--------------------| 
    A:----2-1-1--1-1--1-1----2-1-1-1--------------------| 
    D:----2------------------2---------2-3-2-3-5-3-2----| 
    . . . . . . 
    e:----------------------------------------------------------| 
    B:----------------------------------------------------------| 
    G:----------------------------------------------------------| 
    D:----2-3-3--3p1--3-3----2-3-3-3--------------------2--2----| 
    A:----2-1-1--1-1--1-1----2-1-1-1--------------------2--2----| 
    D:----2------------------2--------2--3--2--3--5--3--2--2----| 
    
    
    
    
    1:20 Riff E . . . . . . . . 
    e:------------------------------------------------------------| 
    B:------------------------------------------------------------| 
    G:------------------------------------------------------------| 
    D:-------3-3-3--2-2--3-3--3p1--3-3-3--------------------2-2---| 
    A:-------1-1-1--2-2--1-1--1-1--1-1-1--------------------2-2---| 
    D:--------------2-2-------------------2--3--2--3--5--3--2-2---| 
    . . . . . . . . 
    e:-----------------------------------------------------------------| 
    B:-----------------------------------------------------------------| 
    G:-----------------------------------------------------------------| 
    D:-------3-3-3-----------3-3-3--2-2--3-3-3--------------------2~---| 
    A:-------1-1-1--(pause)--1-1-1--2-2--1-1-1--------------------2~---| 
    D:------------------------------2-2---------2--3--2--3--5--3--2~---| 
    
    
    1:40 (bass riff) 
    
    
    1:50 Riff F . . . . . . . . . . . . . . . . . . . . . . . . 
    e:---------------------------------------------------------------| 
    B:---------------------------------------------------------------| 
    G:---------------------------------------------------------------| 
    D:-------------0-2-0-2-3-2-0-2--0-2-0-2-3-2-0-2--0-2-0-2-3-2-0-2-| 
    A:-------------0-2-0-2-3-2-0-2--0-2-0-2-3-2-0-2--0-2-0-2-3-2-0-2-| 
    D:-------------0-2-0-2-3-2-0-2--0-2-0-2-3-2-0-2--0-2-0-2-3-2-0-2-| 
    . . . . . . . 1:58 
    e:-------------------|----------------| 
    B:-------------------|----------------| 
    G:-------------------|----------------| 
    D:--0-2-0-2-3-2-0----|----------------| 
    A:--0-2-0-2-3-2-0----|----------------| 
    D:--0-2-0-2-3-2-0----|--pick slide--| 
    
    
    
    1:59 Riff G 
    e:--------------------------------------------------------------------| 
    B:--------------------------------------------------------------------| 
    G:--------------------------------------------------------------------| 
    D:--0-2-0-2-3-2-0-0--0-2-0-2-3-2-0-0--0-2-0-2-3-2-0-0--0-2-0-2-3-0----| 
    A:--0-2-0-2-3-2-0-0--0-2-0-2-3-2-0-0--0-2-0-2-3-2-0-0--0-2-0-2-3-0----| 
    D:--0-2-0-2-3-2-0-0--0-2-0-2-3-2-0-0--0-2-0-2-3-2-0-0--0-2-0-2-3-0----| 
    
    e:----------------| 
    B:----------------| 
    G:----------------| 
    D:----------------| 
    A:----------------| 
    D:--(pick slide)--| 
    
    e:---------------------------------------------------------------------| 
    B:---------------------------------------------------------------------| 
    G:---------------------------------------------------------------------| 
    D:--0-2-0-2-3-2-0-0--0-2-0-2-3-2-0-0-------------------0-2-0-2-3-0~----| 
    A:--0-2-0-2-3-2-0-0--0-2-0-2-3-2-0-0----(pause)--------0-2-0-2-3-0~----| 
    D:--0-2-0-2-3-2-0-0--0-2-0-2-3-2-0-0-------------------0-2-0-2-3-0~----| 
    
    
    
    
    2:21 Riff H . . . . . . . . . . . . . . . . . . . . . . . . 
    e:-----------------------------------------------------------------------| 
    B:-----------------------------------------------------------------------| 
    G:-----------------------------------------------------------------------| 
    D:-------------2-2-2-3-2-3-2--2-2-3-2-3-2--2-2-2-3-2-3-2--2-2-2-2-2-2-2--| 
    A:-------------2-2-2-3-2-3-2--2-2-3-2-3-2--2-2-2-3-2-3-2--2-2-2-2-2-2-2--| 
    D:-------------2-2-2-3-2-3-2--2-2-3-2-3-2--2-2-2-3-2-3-2--2-2-2-2-2-2-2--| 
    
    . . . . . . . . . . . . . . . . . . . . 
    e:----------------------------------------------------------| 
    B:----------------------------------------------------------| 
    G:----------------------------------------------------------| 
    D:-----2-2-3-2-3-2--2-2-3-2-3-2--2-2-2-3-2-3-2---3-3-3-3----| 
    A:-----2-2-3-2-3-2--2-2-3-2-3-2--2-2-2-3-2-3-2---1-1-1-1----| 
    D:-----2-2-3-2-3-2--2-2-3-2-3-2--2-2-2-3-2-3-2--------------| 
    
    . . . . . . . . . . . . . . . . . . . . . . . . 
    e:---------------------------------------------------------------| 
    B:---------------------------------------------------------------| 
    G:---------------------------------------------------------------| 
    D:-----2-2-2-3-2-3-2--2-2-3-2-3-2--2-2-2-3-2-3-2--2-2-2-2-2-2-2--| 
    A:-----2-2-2-3-2-3-2--2-2-3-2-3-2--2-2-2-3-2-3-2--2-2-2-2-2-2-2--| 
    D:-----2-2-2-3-2-3-2--2-2-3-2-3-2--2-2-2-3-2-3-2--2-2-2-2-2-2-2--| 
    
    . . . . . . . . . . . . . . . . . . . . 
    e:----------------------------------------------------------| 
    B:----------------------------------------------------------| 
    G:----------------------------------------------------------| 
    D:-----2-2-3-2-3-2--2-2-3-2-3-2--2-2-2-3-2-3-2---3-3-3-3----| 
    A:-----2-2-3-2-3-2--2-2-3-2-3-2--2-2-2-3-2-3-2---1-1-1-1----| 
    D:-----2-2-3-2-3-2--2-2-3-2-3-2--2-2-2-3-2-3-2--------------| 
    
    . . . . . . . . . . . . . . . 
    e:--------------------------------------------------------------------| 
    B:--------------------------------------------------------------------| 
    G:--------------------------------------------------------------------| 
    D:---2-2-2-3-2-3-2--2-2-3-2-2-2--2-2-2-3-2-3-2--2-2-2-3-2--3-3-3-3----| 
    A:---2-2-2-3-2-3-2--2-2-3-2-2-2--2-2-2-3-2-3-2--2-2-2-3-2--1-1-1-1----| 
    D:---2-2-2-3-2-3-2--2-2-3-2-2-2--2-2-2-3-2-3-2--2-2-2-3-2-------------| 
    
    . . . . . . . . . . . . . . . . . . 
    e:--------------------------------------------------------------------| 
    B:--------------------------------------------------------------------| 
    G:--------------------------------------------------------------------| 
    D:---2-2-2-3-2-3-2--2-2-3-2-2-2--2-2-2-3-2-3-2--2-2-2-3-2--3-3-3-3----| 
    A:---2-2-2-3-2-3-2--2-2-3-2-2-2--2-2-2-3-2-3-2--2-2-2-3-2--1-1-1-1----| 
    D:---2-2-2-3-2-3-2--2-2-3-2-2-2--2-2-2-3-2-3-2--2-2-2-3-2-------------| 
    
    
    
    2:46 Riff I x2 
    e:--------------------------------| 
    B:--------------------------------| 
    G:-------------4-------------4~---| 
    D:------2----4-----2--5----4------| 
    A:----2----5-----3-------5--------| 
    D:--2-----------------------------| 
    
    
    
    3:02 Riff J . . . . . . . . x4 
    e:---------------------------------------------------------| 
    B:---------------------------------------------------------| 
    G:---------------------------------------------------------| 
    D:--------------2-2--2-2--2-2--2-2---5-5--5-5--0-0--0-0----| 
    A:--------------2-2--2-2--2-2--2-2---3-3--3-3--0-0--0-0----| 
    D:--------------2-2--2-2--2-2--2-2-------------0-0--0-0----| 
    
    3:21 
    (repeat Riff I) x4 
    
    3:49 
    (repeat Riff J) x4 
    
    4:07 x4 4:26 
    e:-------------------------------|--------| 
    B:-------------------------------|--------| 
    G:-----------------0------0------|--------| 
    D:-----2--2~-----2------3--------|---2~---| 
    A:-----2--2~---3------4----------|---2~---| 
    D:-----2--2~---------------------|---2~---|
     

    Тональность:

    Нет текста!



    Назад
    Рекомендуем посмотреть другие песни исполнителя «Avenged Sevenfold»:

    • Комментарии Facebook ()
    • Комментарии ВКонтакте



    Добавить в Избранное Браузера
    Сохранить здесь Очистить


    x

    0


    +
    -

    +
    -

    -

    Авторизация





    Зарегистрироваться

    M

    Дата и время

    • 21:15:06
       

    Социальные ссылки


    Наши приложения

    • Muzbank App Play Market
    • Muzbank Amazon App