MUZBANK



A Most Complete Bank Of Music Information

МУЗЫКАЛЬНО-ИНФОРМАЦИОННЫЙ БАНК

Поиск по сайту







    AAvenged Sevenfold • I Wont See You Tonight Part 1 (аккорды и текст - chords & lyrics)


    504

    Print

    Видео «I Wont See You Tonight Part 1 (Avenged Sevenfold)»

    Видео клипы к песне подбираются автоматически сайтом youtube. Возможны некоторые несоответствия клипов песне.

    ↑ Спрятать рекламу ↑



    Download



     
    
    
    Guitar and Bass in:
    G|-----------------------------------------------------------------------|
    D|-----------------------------------------------------------------------|
    A|-----------------------------------------------------------------------|
    D|-55555555-55555555-11111111-11111111-33333333-33333333-0000000-0000000-|
    
    G|-----------------------------------------------------------------------|
    D|-----------------------------------------------------------------------|
    A|-------------------11111111--------------------------------------------|
    D|-11111111-11111111----------33333333-55555555-55555555-1111111-1111111-|
    
    G|---------------------------------------|
    D|---------------------------------------|
    A|---------------------------------------|
    D|-33333333-33333333-00000000-1111-333-5/|
    
    Pre-Verse
    G|-------------------------------------------------------------------|
    D|---------101010---------------------101010---------------------888-|
    A|---10-10--------10-7-8-----3-3--8-8--------8-10-7-----1-1--6-6-----|
    D|-0----------------------3--------------------------1---------------|
    
    G|--------------------------------------------------------|
    D|--------------------------------------------------------|
    A|-6h8p5-----5----6-------8-------------------------------|
    D|--------0----6-8-8--8-10-10--121110987654321-|
    
    Verse
    G|---------------------------------------------------------------------|
    D|---------------101010---------------------101010---------------------|
    A|----5-5--10-10--------10-7-8-----3-3--8-8--------8-10-7-----1-1--6-6-|
    D|-5----------------------------3--------------------------1-----------|
    				  2x
    G|----------------------------------|
    D|-888------------------------------|
    A|-----6h8p5-----5-----6-------8----|
    D|------------0-----6-8-8--8-10-10--|
    
    Chorus 1
    G|------------------------------------------------------------------|
    D|------------------------------------------------------------------|
    A|-------------------------------------111111111-11111111-----------|
    D|-55555555-55555555-11111111-11111111--------------------3~----4~--|
    
    Verse	4x
    
    Chorus	2								2x
    G|--------------------------------------------------------------------------|
    D|--------------------------------------------------------------------------|
    A|-------------------------------------111111111-11111111-------------------|
    D|-55555555-55555555-11111111-11111111--------------------33333333-44444444-|
    
    Guitar Solo
    G|-------------------------------------------------------------------------|
    D|-------------------------------------------------------------------------|
    A|-------------------------------------------------------------------------|
    D|-55555555-55555555-11111111-11111111-33333333-33333333-00000000-00000000-|
    
    G|-------------------------------------------------------------------------|
    D|-------------------------------------------------------------------------|
    A|-------------------11111111----------------------------------------------|
    D|-11111111-11111111----------33333333-55555555-55555555-11111111-11111111-|
    
    G|--------------------------------------|
    D|--------------------------------------|
    A|--------------------------------------|
    D|-33333333-33333333-00000000-1111-3333-|
    
    Chorus	3								  2x
    G|--------------------------------------------------------------------------|
    D|--------------------------------------------------------------------------|
    A|--------------------------------------------------------------------------|
    D|-55555555-55555555-33333333-33333333-11111111-11111111-00000000-1111-3333-|
    
    2nd guitar solo
    G|-------------------------------------------------------------------------|
    D|-------------------------------------------------------------------------|
    A|-------------------------------------------------------------------------|
    D|-55555555-55555555-11111111-11111111-33333333-33333333-00000000-00000000-|
    
    G|-------------------------------------------------------------------------|
    D|-------------------------------------------------------------------------|
    A|-------------------11111111----------------------------------------------|
    D|-11111111-11111111----------33333333-55555555-55555555-11111111-11111111-|
    
    G|--------------------------------------|
    D|--------------------------------------|
    A|--------------------------------------|
    D|-33333333-33333333-00000000-1111-3333-|
    
    then:
    G|-------------------------------------------------------------------------|
    D|-------------------------------------------------------------------------|
    A|-------------------------------------------------------------------------|
    D|-55555555-55555555-33333333-33333333-1111111-11111111-00000000-1111-3333-|
    
    G|---------------------------------------------------------------------------|
    D|---------------------------------------------------------------------------|
    A|---------------------------------------------------------------------------|
    D|-55555555-55555555-33333333-33333333-1111111-11111111-00000000-1111-333-5~-|
    
    -Piano Interlude-
    
    Outro
    G|-----------------------------------------------------------------------|
    D|-----------------------------------------------------------------------|
    A|-----------------------------------------------------------------------|
    D|-55555555-5555555-33333333-33333333-1111111-11111111-00000000-00000000-|
       >>>>>>>
    				     6x
    G|-------------------------------------|
    D|-------------------------------------|
    A|-------------------------------------|
    D|-55555555-33333333-11111111-33333333-|
    
    G|--------------------------------------------------------------------------|
    D|--------------------------------------------------------------------------|
    A|--------------------------------------------------------------------------|
    D|-55555555-55555555-88888888-88888888-333333333-33333333-11111111-11111111-|
    	Play and fade out
     

    Тональность:

    Нет текста!



    Назад
    Рекомендуем посмотреть другие песни исполнителя «Avenged Sevenfold»:

    • Комментарии Facebook ()
    • Комментарии ВКонтакте



    Добавить в Избранное Браузера
    Сохранить здесь Очистить


    x

    0


    +
    -

    +
    -

    -

    Авторизация





    Зарегистрироваться

    M

    Дата и время

    • 17:37:51
       

    Социальные ссылки


    Наши приложения

    • Muzbank App Play Market
    • Muzbank Amazon App