MUZBANK



A Most Complete Bank Of Music Information

МУЗЫКАЛЬНО-ИНФОРМАЦИОННЫЙ БАНК

Поиск по сайту







    AAvenged Sevenfold • Lips Of Deciet (аккорды и текст - chords & lyrics)


    210

    Print

    Видео «Lips Of Deciet (Avenged Sevenfold)»

    Видео клипы к песне подбираются автоматически сайтом youtube. Возможны некоторые несоответствия клипов песне.

    ↑ Спрятать рекламу ↑



    Download


     
    
    
    e|---------------------------------------------------------------------------| 
    B|---------------------------------------------------------------------------| 
    G|--3/-7-9-10--9-7/--3-9-10-9-7/--10-12-13-12-10/--5-7-8-7-5/--(slide-to-7-)-| 
    D|--3/-7-7-7---7-7/--3-7--7-7-7/--10-10-10-10-10/--5-5-5-5-5/------------7---| 
    A|---------------------------------------------------------------------------| 
    E|---------------------------------------------------------------------------| 
    
    e|---------------------------------------------------------------------------| 
    B|---------------------------------------------------------------------------| 
    G|----------------------7/-8-------------------------------------------------| 
    D|--7-build--7-build-----------go-back---------------------------------------| 
    A|--7--out---7--out-----5/-10---into-first-riff------------------------------| 
    E|--5--------5---------------------------------------------------------------| 
    x x 
    e|---------------------------------------------------------------------------| 
    B|---------------------------8-10--------------------------------------8-10--| 
    G|--2-5-3-2-0-5-3-2-2-0-5-7-9-----do-twice-----------------------------------| 
    D|--0-0-0-0-0-0-0-0-3-0-0-0-0------------------------------------------------| 
    A|---------------------------------------------------------------------------| 
    E|---------------------------------------------------------------------------| 
    
    e|---------------------------------------------------------------------------| 
    B|----------------------------8-10-------------------------------------------| 
    G|--2-5-3-2-0-5-3-2-2-0-5-7-9------------------------------------------------| 
    D|---------------------------------------------------------------------------| 
    A|---------------------------------------------------------------------------| 
    E|---------------------------------------------------------------------------| 
    
    e|---------------------------------------------------------------------------| 
    B|--the-forth--------8-10-11-10-8h10p8---------------------------------------| 
    G|--time-the-ending--------------------9-11-12-11-9-7-let--------------------| 
    D|--goes-like-this----------------------------------0--ring------------------| 
    A|---------------------------------------------------------------------------| 
    E|---------------------------------------------------------------------------| 
    
    e|---------------------------------------------------------------------------| 
    B|---------------------------------------------------------------------------| 
    G|--8-7-8-7-12-12-7----8-7-8-7-5--5------------------------------------------| 
    D|--------------------------------5-5---2x-----------------------------------| 
    A|--6-5-6-5-10-14-5----6-5-6-5-3--3-5----------------------------------------| 
    E|----------------------------------3----------------------------------------| 
    x x 
    chorus 4x 
    e|---------------------------------------------------------------------------| 
    B|---------------------------------------------------------------------------| 
    G|----------------------------14-9-10-12-14----------------------------------| 
    D|--7-8-10-12---on-third-----------------------------------------------------| 
    A|--7-8-10-12----time---------12-7-8--10-12----------------------------------| 
    E|--5-6-8--10----lead-plays:-------------------------------------------------| 
    x x x x 
    
    e|---------------------------------------------------------------------------| 
    B|---------------------------------------------------------------------------| 
    G|--9-10-9-10-7---then-back-into---------------------------------------------| 
    D|--7-7--7-7--7----chorus----------------------------------------------------| 
    A|---------------------------------------------------------------------------| 
    E|---------------------------------------------------------------------------| 
    x x x x 
    
    e|---------------------------------------------------------------------------| 
    B|---------------------------------------------------------------------------| 
    G|--9-10-9-10-7-last-time-9-10-9---------------------------------------------| 
    D|--7-7--7-7--7-----------7-7--7---------------------------------------------| 
    A|---------------------------------------------------------------------------| 
    E|---------------------------------------------------------------------------| 
    x x x x 
    
    e|---------------------------------------------------------------------------| 
    B|---------------------------------------------------------------------------| 
    G|---------------------5th----9---7th----------------------------------------| 
    D|--7-8-2--------------time-------time-2-------------------------------------| 
    A|--7-8-2----------3x---------7--------2-------------------------------------| 
    E|--5-6-0--0-2-3-0---------------------0-------------------------------------| 
    x x x x x
     

    Тональность:

    Нет текста!



    Назад
    Рекомендуем посмотреть другие песни исполнителя «Avenged Sevenfold»:

    • Комментарии Facebook ()
    • Комментарии ВКонтакте



    Добавить в Избранное Браузера
    Сохранить здесь Очистить


    x

    0


    +
    -

    +
    -

    -

    Авторизация





    Зарегистрироваться

    M

    Дата и время

    • 19:11:10
       

    Социальные ссылки


    Наши приложения

    • Muzbank App Play Market
    • Muzbank Amazon App