MUZBANK



A Most Complete Bank Of Music Information

МУЗЫКАЛЬНО-ИНФОРМАЦИОННЫЙ БАНК

Поиск по сайту







    ААвтоматические удовлетворители • Город (аккорды и текст - chords & lyrics)


    429

    Print

    Видео «Город (Автоматические удовлетворители)»

    Видео клипы к песне подбираются автоматически сайтом youtube. Возможны некоторые несоответствия клипов песне.

    ↑ Спрятать рекламу ↑



    Download


    Вступление:
        (G-III) (E-II)  (C-III) (D-V)
    6|--------------------------------
    5|--------------------------------
    4|-5-------2-------5-------7------
    3|--4---4---4---4---5-------7---7-
    2|---353-----575-----5--7----787--
    1|--------------------75----------
    
    Рифф:
    
    6|-33-33--2-3-55-55--7-5-
    5|-55-55--4-5-77-77--9-7-
    4|-55-55--4-5-77-77--9-7-
    3|-----------------------
    2|-----------------------
    1|-----------------------
    

    Тональность:

    Нет текста!



    Назад
    Рекомендуем посмотреть другие песни исполнителя «Автоматические удовлетворители»:

    • Комментарии Facebook ()
    • Комментарии ВКонтакте



    Добавить в Избранное Браузера
    Сохранить здесь Очистить


    x

    0


    +
    -

    +
    -

    -

    Авторизация





    Зарегистрироваться

    M

    Дата и время

    • 05:23:24
       

    Социальные ссылки


    Наши приложения

    • Muzbank App Play Market
    • Muzbank Amazon App