MUZBANK



A Most Complete Bank Of Music Information

МУЗЫКАЛЬНО-ИНФОРМАЦИОННЫЙ БАНК

Поиск по сайту







    ААзъ • Бунт (аккорды и текст - chords & lyrics)


    371

    Print

    Видео «Бунт (Азъ)»

    Видео клипы к песне подбираются автоматически сайтом youtube. Возможны некоторые несоответствия клипов песне.

    ↑ Спрятать рекламу ↑



    Download


     
    
    
    Начало:
    E-----------------------------------------|
    B-----------------------------------------|
    G-----------------------------------------|
    D|--7-7--------7-7-------------7-7--------------------|
    A|--7-7-7-6-5--7-7-7-6-5--2-3--7-7-7-6-5--3-2-0-3-0-0-|
    E|--5-5--------5-5-------------5-5--------------------|
    
    Рифф:
    D|--7-7-7-7-8-5-|
    A|--7-7-7-7-8-5-| 
    E|--5-5-5-5-6-3-|
    
    Рифф 8 раз
    
      A5                C5 G5
    Бунт - состоянье непокоя
    Бунт всегда против строя
    Бунт собирает всех вместе
    Бунт убивает на месте
    
     A5       C5      G5
    Пусть неприемлемы смены
    Бунт - несет перемены
    Бунт создает настроенье
    Бунт угнетает мгновенье
    
    Рифф 4 раза
    
      A5             C5  G5
    Бунт по природе уродец
    Бунт - это смелый народец
    Бунт переходит границы
    Бунт прожигает зорницы
     
      A5        C5       G5
    Бунт - сотня выбитых окон
    Бунт - хитроумнейший кокон
    Бунт - это ночь баррикады
    Бунт побежден из ограды
    
    G-----------5-7---------------7--5-3-2--|
    D|-7-7-7-7-8-5--7-7-7-7------7-7-7-7-8-5------------|
    
    |---5-----5/7-5/7----5-----5/7-5/7------------------|
    |-7---7-5----------7---7-5----------7---------------|
    
       A5         C5         G5
    Бунт - это смерть после жизни
    Бунт - собирание ???(не понял)
    Бунт по истории вечен
    Бунт сам в себе бесконечен
     

    Тональность:

    Нет текста!



    Назад
    Рекомендуем посмотреть другие песни исполнителя «Азъ»:

    • Комментарии Facebook ()
    • Комментарии ВКонтакте



    Добавить в Избранное Браузера
    Сохранить здесь Очистить


    x

    0


    +
    -

    +
    -

    -

    Авторизация





    Зарегистрироваться

    M

    Дата и время

    • 15:36:07
       

    Социальные ссылки


    Наши приложения

    • Muzbank App Play Market
    • Muzbank Amazon App