MUZBANK



A Most Complete Bank Of Music Information

МУЗЫКАЛЬНО-ИНФОРМАЦИОННЫЙ БАНК

Поиск по сайту







    BBabes In Toyland • The Quiet Room (аккорды и текст - chords & lyrics)


    241

    Print

    Видео «The Quiet Room (Babes In Toyland)»

    Видео клипы к песне подбираются автоматически сайтом youtube. Возможны некоторые несоответствия клипов песне.

    ↑ Спрятать рекламу ↑



    Download


     
    
    
    The Quiet Room
                                        tabbed by Julien Gros
        1                2                3                4                5    
         ----0---0-------|0---0---0---0-0-|0-0-----0---0---|----0---0-------|0---0-------0--- E
         3-----3---3-2---|--2---2---------|----0-----0---2-|3-----3---3-----|--------0-----0- B
         --4-------------|----------------|----------------|------------2---|--2---2--------- G
         0-------0-0-----|----------------|----------------|0-------0-0-----|---------------- D
         ------------4---|----4-4-3-------|3-3-2-------2-4-|------------0---|----0-0-2------- A
         ----------------|----------------|----------------|----------------|---------------- D
    
        6                7                8                9               10
         ----------0-----|----0---0-------|0---0---0-----0-|--0-----0-------|----0-----0----- E
         ----0-------0-2-|3-----3---3-2---|--2---2-----0---|0---0-----0-0-2-|3-----3-3------- B
         3---------------|----------------|----------------|----------------|------------2--- G
         ----------------|0-------0-0-----|----------------|----------------|0-------0-0----- D
         1---2-------2-4-|------------4---|----4-4-3-----3-|2-3-2-------2-4-|------------0--- A
         ----------------|----------------|----------------|----------------|---------------- D
    
       11               12               13               14               15
         0---0-------0---|----------0-----|----1---1-------|3---3---4-,-4---|4-4-4-3-3---3--- E
         --------0-----0-|----0-------0-,-|3-3---------3-3-|----------------|--------------3- B
         --2---2---------|3---------------|----------------|----------------|---------------- G
         ----------------|----------------|------------0---|----0-0---------|----0---0---0--- D
         ----0-0-2-------|1---2-----------|----------------|----------------|---------------- A
         ----------------|----------------|0-------0-0-----|--------0-------|0-0------------- D  
    
       16               17               18               19               20  
         ----1---1-------|1---1-------1-,-|1---4---3---1---|----1---1-1-1h3-|3-----3-3h4-4--- E
         --3---3-------3-|----------3-----|--------------3-|--3---3---------|--3-----------3- B
         2---------3-3---|--3---3-3-------|----------------|2---------------|---------------- G
         ------------0---|----0-0---------|----0---0---0---|------------0---|----0-0--------- D
         ----------------|----------------|----------------|----------------|---------------- A
         0-------0-0-----|--------0-------|0-0-------------|0-------0-0-----|---------------- D
    
       21               22               23               24               25 
         --4-4p3-3---3---|----1---1-------|1---0-------0---|0-,-0-----------|---------------- E
         ----------3---3-|--3---3-------3-|--3-------2-----|2---2-----------|----0---1---3--- B
         ----------------|3---------3-3---|------3-2-------|----------------|--2------------- G
         ----0---0---0---|------------0---|----0-0---------|----------------|---------------- D
         ----------------|----------------|--------0---0---|0---0-----------|---------------- A
         0-0-------------|0-------0-0-----|----------------|----------------|0-------0-0-3--- D
    
       26               27               28               29               30
         ----------------|----------------|----------------|----0---1-------|---------------- E
         1-,-0-------0---|1---0-----0---0-|3---0---1---3---|1---0-3-----0---|1---0---0---0-0- B
         ----------2-----|--------2-------|--2-------------|----------2-----|---------------- G
         ----------------|----------------|----------------|----------------|---------------- D
         --------3-------|3-2-2-------2-2-|----------------|--------3-------|3-2-2-------2-2- A
         ----3-3---------|----------------|0-------0-0-3---|----3-3---------|---------------- D
    
       31               32               33               34               35
         ----------------|----------------|----------------|----------------|---------------- E
         3---0-1-3-3-1---|3-1-3-1-0-3-3-0-|3-0---3-3-3-3-3-|--3-0-1-3-3-1---|3-1-3-1-0-3-3-0- B
         --2-------------|----------------|----3-----------|2---------------|---------------- G
         0-------0-0-----|----------------|----------------|0-------0-0-----|---------------- D
         ------------3---|----3-3-2-------|2-2-1-------1-1-|------------3---|----3-3-2------- A
         ----------------|----------------|----------------|----------------|---------------- D
      
       36               37               38               39               40    
         ----------------|----------------|----------------|----------------|--------0---0--- E
         3-0-----3---3---|----0-1-3-3-1---|3-1-3-1-0-3-3-0-|3-0-3-----------|----------3---3- B
         ----3-3---------|--2-------------|----------------|----------------|2 / 7----------- G
         ----------------|0-------0-0-----|----------------|----------------|---------------- D
         2-2-1-------1-1-|------------3---|----3-3-2-------|2-2-1-----------|---------------- A
         ----------------|----------------|----------------|----------------|---------------- D
    
       41               42               43               44               45    
         ----0---0---0---|--0---0-----0---|--------0---0---|----0---0-------|0-------------0- E
         2-----2---2-----|0---0---0-----0-|0-2-3-----3---3-|------------0---|--0-----0------- B
         ----------------|----------------|----------------|2-----2---2-----|----3----------- G
         ----------------|----------------|----0-------0-0-|----------------|---------------- D
         4-------4-4-3---|--3-2-3-2-------|2-4-------------|0-------0-0-2---|----1---2------- A
         ----------------|----------------|----------------|----------------|---------------- D
    
       46               47               48               49               50    
         --------0---0---|----0---0---0---|0-0-0-0-----0---|--------0---0---|----0---0------- E
         0-2-3-----3---3-|2-----2---2-----|--------0-----0-|0-2-3-----3---3-|------------0--- B
         ----------------|----------------|----------------|----------------|2-----2---2----- G
         ----0-------0-0-|----------------|----------------|----0-------0-0-|---------------- D
         2-4-------------|4-------4-4-3---|----3-3-2-------|2-4-------------|0-------0-0-2--- A
         ----------------|----------------|----------------|----------------|---------------- D
    
       51               52               53               54               55    
         0-------------0-|--------1---1---|----3---3-3-3h4-|4-----4-4p3-3---|--3-------6----- E
         --0-----0-------|0-,-3-----3-----|3-3-------------|--3-----------3-|3-----3-6---6--- B
         ----3-----------|----------------|----------------|----------------|----3---------3- G
         ----------------|----------------|0-------0-0-----|--------0---0---|0--------------- D
         ----1---2-------|----------------|----------------|----------------|---------------- A
         ----------------|----0-------0-0-|------------0---|----0-0---------|----0-------0-0- D
    
       56               57               58               59               60    
         ------6---------|--6-----4---3---|1-------1---1-1-|1h3-3-----3-3h4-|4-----4-4p3-3--- E
         --3-6---6-----3-|6---6-----------|--3---3---3-----|------3---------|--3-----------3- B
         3---------3-3---|----------------|----2-----------|----------------|---------------- G
         0-------0-0-----|--------0---0---|0---------------|0-------0-0-----|--------0------- D
         ----------------|----------------|----------------|----------------|---------------- A
         ------------0---|----0-0---------|----0-------0-0-|------------0---|----0-0--------- D
    
       61               62               63               64               65    
         --3-------6-----|------6-----5---|0---0-,-0-------|----------------|---------------- E
         3-----3-6---6---|--3-6---6-------|----------------|----0---1---3---|1---0-------0--- B
         ----3---------3-|3---------3---6-|----6---6-------|--2-------------|----------2----- G
         0-0-------------|0-------0-0-----|----------------|----------------|---------------- D
         ----------------|------------0---|0---0---0-------|----------------|--------3------- A
         ----0-------0-0-|----------------|----------------|0-------0-0-3---|----3-3--------- D
    
       66               67               68               69               70    
         ----------------|----------------|----------------|----------------|---------------- E
         1---0---3-1-0-0-|3---0---1---3---|1---0-------0---|1---0---3-1-0---|3---0-1-3-3-1--- B
         ----------------|--2-------------|----------2-----|----------------|--2------------- G
         ----------------|----------------|----------------|----------------|0-------0-0----- D
         3-2-2-------2-2-|----------------|--------3-------|3-2-2-------2-2-|------------3--- A
         ----------------|0-------0-0-3---|----3-3---------|----------------|---------------- D  
    
       71               72               73               74               75    
         ----------------|----------------|----------------|----------------|---------------- E
         3---3---0---3-0-|3-0---3-3-3-3---|3---3---3---1---|3-1-3-1-0-3-3-0-|3-0---3-3-3-3--- B
         ----------------|----3---------2-|--2-------------|----------------|----3---------2- G
         ----------------|----------------|0-------0-0-----|----------------|---------------- D
         ----3-3-2-------|2-2-1-------1-0-|------------3---|----3-3-2-------|2-2-1-------1-0- A
         ----------------|----------------|----------------|----------------|---------------- D
    
       76               77               78               79               80    
         ----------------|----------------|----------------|--------0-0-----|---------------- E
         ----3---3---1-1-|3-1-3-1-0-3-3-0-|3-0-3-----------|----3-3-----3---|----2----------- B
         2-2-------2-----|----------------|----------------|2-2-----------2-|2---3----------- G
         0-------0-0-----|----------------|----------------|----------------|----0----------- D
         ------------3---|----3-3-2-------|2-2-1-----------|----------------|---------------- A
         ----------------|----------------|----------------|----------------|---------------- D
    
    
         / : slide          - : sixteenth note (e.g. : 3 is a sixteenth note, 3- is a eighth note 
         h : hammer on      -- : eighth note                       and 3--- is a quarter note)
         p : pull off       ---- : quarter note                
         ,- : quarter rest  tuning : dropped D ; 4/4       Any suggestion at julien.gros2@free.fr
         
         The Quiet Room  (Babes In Toyland, written by Kat Bjelland and Courtney Love as they
                          were actually in their former band sugar baby doll)
     

    Тональность:

    Нет текста!



    Назад

    • Комментарии Facebook ()
    • Комментарии ВКонтакте



    Добавить в Избранное Браузера
    Сохранить здесь Очистить


    x

    0


    +
    -

    +
    -

    -

    Авторизация





    Зарегистрироваться

    M

    Дата и время

    • 09:57:10
       

    Социальные ссылки


    Наши приложения

    • Muzbank App Play Market
    • Muzbank Amazon App