MUZBANK



A Most Complete Bank Of Music Information

МУЗЫКАЛЬНО-ИНФОРМАЦИОННЫЙ БАНК

Поиск по сайту







    BBad Company • Cant Get Enough (аккорды и текст - chords & lyrics)


    376

    Print

    Видео «Cant Get Enough (Bad Company)»

    Видео клипы к песне подбираются автоматически сайтом youtube. Возможны некоторые несоответствия клипов песне.

    ↑ Спрятать рекламу ↑



    Download


     
    
    
    Bad Company: Can’t Get Enough
    Intro: (x2)
       C     Bb     F       Bb F
    E------------------------------|
    B--5-----3-3----10------3--10--|
    G--5-----3-3----10------3--10--|
    D--5-----3-3----10------3--10--|
    A--3-----1-1----8-------1--8---|
    E------------------------------|
        
    Verse~: 
        C      Bb      F     Fsus4    F      Fsus4 
    E------------------------------------------------|
    B-----------------10--10--11b----10--10--11b-----|
    G-----------------10--10---------10--10----------|
    D---10-----8--8---10--10---------10--10----------|
    A---10-----8--8----------------------------------|
    E---8------6--6----------------------------------|
     
        G                          Bb 
    E---3--------------------------1---|
    B---3--------------------------3---|
    G---4--------------------------3---|
    D---5--------------------------3---|
    A---5--------------------------1---|
    E---3------------------------------|
    
    E---------------------|
    B---8--x--8------5----|
    G---8--x--8------5----|
    D---8--x--8------5----|
    A---6--x--6------3----|
    E---------------------|
    
    Chorus: 
    E------------------------------------------------------|
    B---5---6---5----------10--10---11------10--10---11----|
    G---5---5---5----------10--10---10------10--10---10----|   (x3)
    D---5---7---5----------10--10---12------10--10---12----|
    A------------------------------------------------------|
    E------------------------------------------------------|
     
    E-------------------------|
    B-12h13--12--12---12h13---|
    G-12-----12--12---12------|
    D-12h14--12--12---12h14---|
    A-------------------------|
    E-------------------------|
    
    Solo: 
    E-----------------------------------------------|
    B---------------------------/10~~---8--10--8----|
    G---/9~~~--9--7--9--7--5~~~---------------------|
    D-----------------------------------------------|
    A-----------------------------------------------|
    E-----------------------------------------------|
    
    E---------------------------------------------------|
    B----------------------------10*--12r10p8--10h11*---|
    G---/9~~~--9--7--9--7--5~~~-------------------------|
    D---------------------------------------------------|
    A---------------------------------------------------|
    E---------------------------------------------------|
    
    E------------------------------------------------|
    B---------------------------/10~~---8--10--8-----|
    G---/9~~~--9--7--9--7--5~~~----------------------|
    D------------------------------------------------|
    A------------------------------------------------|
    E------------------------------------------------|
    
    E----------------------------------------8~~-----|
    B--------------------------------10~~------------|
    G---/9~~~--9--7--9--7--5~~~----------------------|
    D------------------------------------------------|
    A------------------------------------------------|
    E------------------------------------------------|
    
    E-------8*-------8*--------8--11b12--11b12----11-13--|
    B--8-10-----8-10------8-10---------------------------|
    G----------------------------------------------------|
    D----------------------------------------------------|
    A----------------------------------------------------|
    E----------------------------------------------------|
    
    E-13b14-(14)-14r13p11---13b14-(14)-14r13p11---13b14--13b14~~--|
    B-------------------------------------------------------------|
    G-------------------------------------------------------------|
    D-------------------------------------------------------------|
    A-------------------------------------------------------------|
    E-------------------------------------------------------------|
    
    E----17B19~~~~~----17--17----17B18r17b19~~~~---|
    B----------------------------------------------|
    G----------------------------------------------|
    D----------------------------------------------|
    A----------------------------------------------|
    E----------------------------------------------|
     (x3)                |
    E----------11-x-11---|--15r13p11-----11~--13----15r13p11------|
    B--------------------|----------13------------------------13--|
    G--10b11-------------|----------------------------------------|
    D--------------------|----------------------------------------|
    A--------------------|----------------------------------------|
    E--------------------|----------------------------------------|
    
    E--11--13b15--11---------------------------|
    B----------------13~-----------------------|
    G------------------------12r10p8--10--8~~--|
    D------------------------------------------|
    A------------------------------------------|
    E------------------------------------------|
    
    E------------------------------------------11--11--|
    B------11----13-11----11~~~b13~~~------------------|
    G--/12----12------12-----------------12b13---------|
    D--------------------------------------------------|
    A--------------------------------------------------|
    E--------------------------------------------------|
    
    E------11--13b14--13b14--13b14--13b14--|
    B--13----------------------------------|
    G--------------------------------------|
    D--------------------------------------|
    A--------------------------------------|
    E--------------------------------------|
    
    E--11-x--13b15--11b----------------11*--15r13p11---------|
    B-----------------------13--11--13----------------13~----|
    G--------------------------------------------------------|
    D--------------------------------------------------------|
    A--------------------------------------------------------|
    E--------------------------------------------------------|
    
    E--11--13b15--11----------------------11~----|
    B------------------13--------11----11----13--|
    G-------------------------------12-----------|
    D--------------------------------------------|
    A--------------------------------------------|
    E--------------------------------------------|
    
    E----------------------15----------------------------------|
    B----------15--15b17------17r15-----13-15b17---15--13------|
    G--14p12----------------------------------------------14---|
    D----------------------------------------------------------|
    A----------------------------------------------------------|
    E----------------------------------------------------------|
    
    E-------------15~------15b17---15~---|
    B--13---15b17------------------------|
    G------------------------------------|
    D------------------------------------|
    A------------------------------------|
    E------------------------------------|
    
    E--15b17---12---15~------12----12~--------|
    B---------------------------15------15---|
    G-----------------------------------------|
    D-----------------------------------------|
    A-----------------------------------------|
    E-----------------------------------------|
     

    Тональность:

    Нет текста!



    Назад
    Рекомендуем посмотреть другие песни исполнителя «Bad Company»:

    • Комментарии Facebook ()
    • Комментарии ВКонтакте



    Добавить в Избранное Браузера
    Сохранить здесь Очистить


    x

    0


    +
    -

    +
    -

    -

    Авторизация





    Зарегистрироваться

    M

    Дата и время

    • 05:19:31
       

    Социальные ссылки


    Наши приложения

    • Muzbank App Play Market
    • Muzbank Amazon App