MUZBANK



A Most Complete Bank Of Music Information

МУЗЫКАЛЬНО-ИНФОРМАЦИОННЫЙ БАНК

Поиск по сайту







    BBad Religion • Give You Nothing (аккорды и текст - chords & lyrics)


    236

    Print

    Видео «Give You Nothing (Bad Religion)»

    Видео клипы к песне подбираются автоматически сайтом youtube. Возможны некоторые несоответствия клипов песне.

    ↑ Спрятать рекламу ↑



    Download


     
    
    
    ------------------------------------------------------------------------------- 
                            GIVE YOU NOTHING - Bad Religion
    ------------------------------------------------------------------------------- 
    
    By:joshwhitten@hotmail.com 
    
    Verse: 
    e|----------------------------------| 
    B|----------------------------------| 
    G|----------------------------------| 
    D|--9-9-9-12-12-12------------------| 4X 
    A|--7-7-7-10-10-10--12-12-12-7-7-7--| / 
    E|------------------10-10-10-5-5-5--|/ 
    
    Chorus: 
    e|-----------------------------------------------------------------------| 
    B|-----------------------------------------------------------------------| 
    G|-----------------------------------------------------------------------| 
    D|-----------------------------------------------------------------------| 
    A|--10-10-10-10-10-10-10-10-10-10-10-10-9-9-9-9-9-9-9-9-8-8-8-8-7-7-7-7--| 
    E|---8--8--8--8--8--8--8--8--8--8--8--8-7-7-7-7-7-7-7-7-6-6-6-6-5-5-5-5--| 
    
    e|----------------------------------| 
    B|----------------------------------| 
    G|----------------------------------| 
    D|--9-9-9-12-12-12------------------| 2X 
    A|--7-7-7-10-10-10--12-12-12-7-7-7--| / 
    E|------------------10-10-10-5-5-5--|/ 
    
    e|---------------------------------------| 
    B|---------------------------------------| 
    G|---------------------------------------| 
    D|---------------------------------------| 
    A|--10-10-10-10-10-10-10-10-10-10-10-10--| 
    E|---8--8--8--8--8--8--8--8--8--8--8--8--| 
    
    e|----------------------------------| 
    B|----------------------------------| 
    G|----------------------------------| 
    D|--9-9-9-12-12-12------------------| 2X 
    A|--7-7-7-10-10-10--12-12-12-7-7-7--| / 
    E|------------------10-10-10-5-5-5--|/ 
    
    Verse 
    Chorus 
    
    Bridge: 
    e|---------------------------------------| 
    B|---------------------------------------| 
    G|---------------------------------------| 
    D|--9--9----12--12-----------------------| 6X 
    A|--7--7----10--10----12--12----7-7-7-7--| / 
    E|--------------------10--10----5-5-5-5--|/ 
    
    e|---------------------------------------------------| 
    B|---------------------------------------------------| 
    G|---------------------------------------------------| 
    D|---------------------------------------------------|muted 
    A|--10-10-10-10-10-10-10-10-10-10-10-10-10-10-10-10--| / 
    E|---8--8--8--8--8--8--8--8--8--8--8--8--8--8--8--8--|/ 
    
    e|---------------------------------------------------| 
    B|---------------------------------------------------| 
    G|---------------------------------------------------| 
    D|---------------------------------------------------|first half muted 
    A|--12-12-12-12-12-12-12-12-12-12-12-12-12-12-12-12--| / 
    E|--10-10-10-10-10-10-10-10-10-10-10-10-10-10-10-10--|/ 
    
    e|----------------------------------| 
    B|----------------------------------| 
    G|----------------------------------| 
    D|--9-9-9-12-12-12------------------| 4X 
    A|--7-7-7-10-10-10--12-12-12-7-7-7--| / 
    E|------------------10-10-10-5-5-5--|/ 
    
    Verse 
    
    Chorus 2: 
    e|-----------------------------------------------------------------------| 
    B|-----------------------------------------------------------------------| 
    G|-----------------------------------------------------------------------| 
    D|-----------------------------------------------------------------------| 
    A|--10-10-10-10-10-10-10-10-10-10-10-10-9-9-9-9-9-9-9-9-8-8-8-8-7-7-7-7--| 
    E|---8--8--8--8--8--8--8--8--8--8--8--8-7-7-7-7-7-7-7-7-6-6-6-6-5-5-5-5--| 
    
    e|----------------------------------| 
    B|----------------------------------| 
    G|----------------------------------| 
    D|--9-9-9-12-12-12------------------| 2X 
    A|--7-7-7-10-10-10--12-12-12-7-7-7--| / 
    E|------------------10-10-10-5-5-5--|/ 
    
    e|-----------------------------------------------------------------------| 
    B|-----------------------------------------------------------------------| 
    G|-----------------------------------------------------------------------| 
    D|-----------------------------------------------------------------------| 
    A|--10-10-10-10-10-10-10-10-10-10-10-10-9-9-9-9-9-9-9-9-8-8-8-8-7-7-7-7--| 
    E|---8--8--8--8--8--8--8--8--8--8--8--8-7-7-7-7-7-7-7-7-6-6-6-6-5-5-5-5--| 
    
    e|-------------------------------------| 
    B|-------------------------------------| 
    G|-------------------------------------| 
    D|-9-9-9-12-12-12------------------9--| 
    A|-7-7-7-10-10-10--12-12-12-7-7-7--7--| 
    E|-----------------10-10-10-5-5-5------| 
    
    -------------------------------------------------------------------------------
     

    Тональность:

    Нет текста!



    Назад
    Рекомендуем посмотреть другие песни исполнителя «Bad Religion»:

    • Комментарии Facebook ()
    • Комментарии ВКонтакте



    Добавить в Избранное Браузера
    Сохранить здесь Очистить


    x

    0


    +
    -

    +
    -

    -

    Авторизация





    Зарегистрироваться

    M

    Дата и время

    • 19:28:52
       

    Социальные ссылки


    Наши приложения

    • Muzbank App Play Market
    • Muzbank Amazon App