MUZBANK



A Most Complete Bank Of Music Information

МУЗЫКАЛЬНО-ИНФОРМАЦИОННЫЙ БАНК

Поиск по сайту







    BBad Religion • Part Iv The Index Fossil (аккорды и текст - chords & lyrics)


    259

    Print

    Видео «Part Iv The Index Fossil (Bad Religion)»

    Видео клипы к песне подбираются автоматически сайтом youtube. Возможны некоторые несоответствия клипов песне.

    ↑ Спрятать рекламу ↑



    Download


     
    
    
    ------------------------------------------------------------------------------- 
                     PART IV (THE INDEX FOSSIL) - Bad Religion
    ------------------------------------------------------------------------------- 
    
    By: Terry (AFI_Follower5@otmail.com) 
    
    Intro 
    e|--------------------------| 
    B|--------------------------| 
    G|--------------------------| 
    D|-7-7777-7-x-5-----x-5-----| 
    A|-5-5555-5-x-3-x-5-x-3-x-7-| 
    E|--------------x-3-----x-5-| 
    
    Verse 
    e|-----------------------------------| 
    B|-----------------------------------| 
    G|-----------------------------------| 
    D|-7-7-7-7-x-5-x-7---7-7-7-7-x-5-----| 
    A|-5-5-5-5-x-3-x-5---5-5-5-5-x-3-x-5-| 
    E|-------------------------------x-3-| 
    
    Chorus 
    e|------------------------------------------------------------| 
    B|------------------------------------------------------------| 
    G|------------------------------------------------------------| 
    D|-------------------7-7-7-7--------------------7-7-7-7--10-9-| 
    A|-3-3-3-3--5-5-5-5--5-5-5-5--3-3-3-3--5-5-5-5--5-5-5-5---8-7-| 
    E|-1-1-1-1--3-3-3-3-----------1-1-1-1--3-3-3-3----------------| 
    
    Bridge 
    e|------------------------------------------------------| 
    B|------------------------------------------------------| 
    G|------------------------------------------------------| 
    D|--7------------5-5-5-7-7-7-7------------5-5-5---------| 
    A|--5--7-7-7-7-7-3-3-3-5-5-5-5--7-7-7-7-7-3-3-3-5-5-5-5-| 
    E|-----5-5-5-5-5----------------5-5-5-5-5-------3-3-3-3-| 
    ..p.m.. 
    
    Outro 
    e|--------------------------|---| 
    B|--------------------------|---| 
    G|--------------------------|-7-| 
    D|-7-7777-7-x-5-----x-5-----|-7-| 
    A|-5-5555-5-x-3-x-5-x-3-x-7-|-5-| 
    E|--------------x-3-----x-5-|-5-| 
    
    ===============================================================================
     

    Тональность:

    Нет текста!



    Назад
    Рекомендуем посмотреть другие песни исполнителя «Bad Religion»:

    • Комментарии Facebook ()
    • Комментарии ВКонтакте



    Добавить в Избранное Браузера
    Сохранить здесь Очистить


    x

    0


    +
    -

    +
    -

    -

    Авторизация





    Зарегистрироваться

    M

    Дата и время

    • 06:59:32
       

    Социальные ссылки


    Наши приложения

    • Muzbank App Play Market
    • Muzbank Amazon App