MUZBANK



A Most Complete Bank Of Music Information

МУЗЫКАЛЬНО-ИНФОРМАЦИОННЫЙ БАНК

Поиск по сайту







    BBamboo • Noypi (аккорды и текст - chords & lyrics)


    225

    Print

    Видео «Noypi (Bamboo)»

    Видео клипы к песне подбираются автоматически сайтом youtube. Возможны некоторые несоответствия клипов песне.

    ↑ Спрятать рекламу ↑



    Download



     
    
    
    ---------------------------------------------------------------
    			     Noypi - Bamboo
    ---------------------------------------------------------------
    Tabbed by: Carlo G. dela Cruz
    Email: Olrac_13@hotmail.com
    
    Yeah!! This is my first tab
    
    Tuning: Standard Tuning 
    
    Intro:
    
    e|------------------------------------------------------|
    B|------------------------------------------------------|
    G|------------------------------------------------------|
    D|------------------------------------------------------| 2x
    A|-55555555--77777777--10-10-10-10-10-10-10-10--55555555|
    E|------------------------------------------------------|
    
    Verse 1
    
    e|------------------------------------------------------|
    B|------------------------------------------------------|
    G|------------------------------------------------------|
    D|------------------------------------------------------|2x
    A|-55555555--77777777--10-10-10-10-10-10-10-10--55555555|
    E|------------------------------------------------------|
    
    
    e|----------------------------------------------|
    B|----------------------------------------------|
    G|----------------------------------------------|
    D|----------------------------------------------|
    A|-55555555--77777777--10-10-10-10-10-10-10-10--|
    E|----------------------------------------------|
    
    
    e|----------------------------------|
    B|----------------------------------|
    G|----------------------------------|
    D|------------------5-5-5-5-5-5-5-5-|
    A|-5-5-5-5-5-5-5-5--5-5-5-5-5-5-5-5-|
    E|-3-3-3-3-3-3-3-3--3-3-3-3-3-3-3 3-|
    
    Chorus
    
    e|-------------------------------------------------------------|
    B|-------------------------------------------------------------|
    G|-7-777-7-7777----------------5-5-5-5-5-5-5-5-----------------|
    D|-7-777-7-7777--7-777-7-7777--5-5-5-5-5-5-5-5--5-5-5-5-5-5-5-5|2x
    A|-5-555-5-5555--7-777-7-7777--3-3-3-3-3-3-3-3--5-5-5-5-5-5-5-5|
    E|---------------5-555-5-5555-------------------3-3-3-3-3-3-3-3|
    
    Before Verse2
    
    e|------------------------------------------------------|
    B|------------------------------------------------------|
    G|------------------------------------------------------|
    D|------------------------------------------------------| 2x
    A|-55555555--77777777--10-10-10-10-10-10-10-10--55555555|
    E|------------------------------------------------------|
    
    Verse2
    
    e|------------------------------------------------------|
    B|------------------------------------------------------|
    G|------------------------------------------------------|
    D|------------------------------------------------------| 2x
    A|-55555555--77777777--10-10-10-10-10-10-10-10--55555555|
    E|------------------------------------------------------|
    
    e|--------------------------------------------------------------|
    B|--------------------------------------------------------------|
    G|--------------------------------------------------------------|
    D|----------------------------------------------5-5-5-5-5-5-5-5-|
    A|-55555555--77777777--10-10-10-10-10-10-10-10--5-5-5-5-5-5-5-5-|
    E|----------------------------------------------3-3-3-3-3-3-3-3-|
    
    Chorus
    e|--------------------------------------------------------------|
    B|--------------------------------------------------------------|
    G|-7-777-7-7777----------------5-5-5-5-5-5-5-5------------------|
    D|-7-777-7-7777--7-777-7-7777--5-5-5-5-5-5-5-5--5-5-5-5-5-5-5-5-|2x
    A|-5-555-5-5555--7-777-7-7777--3-3-3-3-3-3-3-3--5-5-5-5-5-5-5-5-|
    E|---------------5-555-5-5555-------------------3-3-3-3-3-3-3-3-|
    
    e|--------------------------------------------------------------------|
    B|--------------------------------------------------------------------|
    G|-7-7-7-7-7-7-7-7-------------------5-5-5-5-5-5-5-5------------------|
    D|-7-7-7-7-7-7-7-7--7-7-7-7-7-7-7-7--5-5-5-5-5-5-5-5--5-5-5-5-5-5-5-5-|2x
    A|-5-5-5-5-5-5-5-5--7-7-7-7-7-7-7-7--3-3-3-3-3-3-3-3--5-5-5-5-5-5-5-5-|
    E|------------------5-5-5-5-5-5-5-5-------------------3-3-3-3-3-3-3-3-|
    
    Bridge
    
    e|---------------------------------------------------------------------|
    B|---------------------------------------------------------------------|
    G|-7-7-7-79-9-911-6-6-6-6-6-6-6-6--5-5-5-57-7-79--7-7-7--9-9-9--11-|
    D|-7-7-7-79-9-911-6-6-6-6-6-6-6-6--5-5-5-57-7-79--7-7-7--9-9-9--11-|2x
    A|-5-5-5-57-7-79--4-4-4-4-4-4-4-4--3-3-3-35-5-57--5-5-5--7-7-7--9--|
    E|---------------------------------------------------------------------|
    
    End bridge at e|---|
                  B|---|
                  G|-7-|
                  D|-7-|
                  A|-5-|
                  E|---|
    
    
    before verse3
    
    e|------------------------------------------------------|
    B|------------------------------------------------------|
    G|------------------------------------------------------|
    D|------------------------------------------------------| 2x
    A|-55555555--77777777--10-10-10-10-10-10-10-10--55555555|
    E|------------------------------------------------------|
    
    verse3
    
    e|---------------------------------------------|
    B|---------------------------------------------|
    G|---------------------------------------------|
    D|---------------------------------------------|
    A|-55555555--77777777--10-10-10-10-10-10-10-10-|
    E|---------------------------------------------|
    
    e|----------------------------------|
    B|----------------------------------|
    G|----------------------------------|
    D|------------------5-5-5-5-5-5-5-5-|
    A|-5-5-5-5-5-5-5-5--5-5-5-5-5-5-5-5-|
    E|-3-3-3-3-3-3-3-3--3-3-3-3-3-3-3 3-|
    
    Chorus
    e|----------------------------------------------------------|
    B|----------------------------------------------------------|
    G|-7-----------------------5-5-5-5-5-5-5-5------------------|
    D|-7-hold----7-777-7-7777--5-5-5-5-5-5-5-5--5-5-5-5-5-5-5-5-|
    A|-5---------7-777-7-7777--3-3-3-3-3-3-3-3--5-5-5-5-5-5-5-5-|
    E|-----------5-555-5-5555-------------------3-3-3-3-3-3-3-3-|
    
    e|--------------------------------------------------------------|
    B|--------------------------------------------------------------|
    G|-7-777-7-7777----------------5-5-5-5-5-5-5-5------------------|
    D|-7-777-7-7777--7-777-7-7777--5-5-5-5-5-5-5-5--5-5-5-5-5-5-5-5-|
    A|-5-555-5-5555--7-777-7-7777--3-3-3-3-3-3-3-3--5-5-5-5-5-5-5-5-|
    E|---------------5-555-5-5555-------------------3-3-3-3-3-3-3-3-|
    
    e|-------------------------------------------------------------------|
    B|-------------------------------------------------------------------|
    G|-7-7-7-7-7-7-7-7-------------------5-5-5-5-5-5-5-5-----------------|
    D|-7-7-7-7-7-7-7-7--7-7-7-7-7-7-7-7--5-5-5-5-5-5-5-5--5-5-5-5-5-5-5-5|2x
    A|-5-5-5-5-5-5-5-5--7-7-7-7-7-7-7-7--3-3-3-3-3-3-3-3--5-5-5-5-5-5-5-5|
    E|------------------5-5-5-5-5-5-5-5-------------------3-3-3-3-3-3-3-3|
    
    Bridge
    
    e|---------------------------------------------------------------------|
    B|---------------------------------------------------------------------|
    G|-7-7-7-79-9-911-6-6-6-6-6-6-6-6--5-5-5-57-7-79--7-7-7--9-9-9--11-|
    D|-7-7-7-79-9-911-6-6-6-6-6-6-6-6--5-5-5-57-7-79--7-7-7--9-9-9--11-|2x
    A|-5-5-5-57-7-79--4-4-4-4-4-4-4-4--3-3-3-35-5-57--5-5-5--7-7-7--9--|
    E|---------------------------------------------------------------------|
    
    End at e|---|
           B|---|
           G|-7-|
           D|-7-|
           A|-5-|
           E|---|
    
       slide down
    
      All Right!!! Thats all,   ENJOY :-)
     

    Тональность:

    Нет текста!



    Назад
    Рекомендуем посмотреть другие песни исполнителя «Bamboo»:

    • Комментарии Facebook ()
    • Комментарии ВКонтакте



    Добавить в Избранное Браузера
    Сохранить здесь Очистить


    x

    0


    +
    -

    +
    -

    -

    Авторизация





    Зарегистрироваться

    M

    Дата и время

    • 19:21:08
       

    Социальные ссылки


    Наши приложения

    • Muzbank App Play Market
    • Muzbank Amazon App