MUZBANK



A Most Complete Bank Of Music Information

МУЗЫКАЛЬНО-ИНФОРМАЦИОННЫЙ БАНК

Поиск по сайту







    BBamboo • Noypi (аккорды и текст - chords & lyrics)


    306

    Print

    Видео «Noypi (Bamboo)»

    Видео клипы к песне подбираются автоматически сайтом youtube. Возможны некоторые несоответствия клипов песне.

    ↑ Спрятать рекламу ↑



    Download



     
    
    
    Song: Noypi
    Performed By: Bamboo
    Tabbed By: Erick
    E-mail: erick_lai20@yahoo.com
    
    Intro:
    e|-----------------|
    B|-----------------|
    G|-----------------|
    D|-----------------| x2
    A|-5-4h5--3-2h3----|
    E|--5---5------3---|
    
    Verse: Tingnan mo iyong palad...
    e|----------------5-5-5-5-5-5-5-----------------3-3-3-3-3-3-3--|
    B|----------------5-5-5-5-5-5-5-----------------3-3-3-3-3-3-3--|
    G|-7-7-7-7-7-7-7--6-6-6-6-6-6-6--5-5-5-5-5-5-5--4-4-4-4-4-4-4--|
    D|-7-7-7-7-7-7-7--7-7-7-7-7-7-7--5-5-5-5-5-5-5--5-5-5-5-5-5-5--| x2
    A|-5-5-5-5-5-5-5--7-7-7-7-7-7-7--3-3-3-3-3-3-3--5-5-5-5-5-5-5--|
    E|----------------5-5-5-5-5-5-5-----------------3-4-3-3-3-3-3--|
    
           Saan ka man naroroon...
    e|----------------5-5-5-5-5-5-5-----------------3-3-3-3-3-3-3-3-3-3-3-3-3-3|
    B|----------------5-5-5-5-5-5-5-----------------3-3-3-3-3-3-3-3-3-3-3-3-3-3|
    G|-7-7-7-7-7-7-7--6-6-6-6-6-6-6--5-5-5-5-5-5-5--4-4-4-4-4-4-4-4-4-4-4-4-4-4|
    D|-7-7-7-7-7-7-7--7-7-7-7-7-7-7--5-5-5-5-5-5-5--5-5-5-5-5-5-5-5-5-5-5-5-5-5|
    A|-5-5-5-5-5-5-5--7-7-7-7-7-7-7--3-3-3-3-3-3-3--5-5-5-5-5-5-5-5-5-5-5-5-5-5|
    E|----------------5-5-5-5-5-5-5-----------------3-4-3-3-3-3-3-3-3-3-3-3-3-3|
    
    Chorus: Hoy Pinoy ako...
    e|-10-10-10-10-10-10-10--5-5-5-5-5-5-5--8--8--8--8--8--8--8---3-3-3-3-3-3-3--|
    B|-10-10-10-10-10-10-10--5-5-5-5-5-5-5--8--8--8--8--8--8--8---3-3-3-3-3-3-3--|
    G|-11-11-11-11-11-11-11--6-6-6-6-6-6-6--9--9--9--9--9--9--9---4-4-4-4-4-4-4--|
    D|-12-12-12-12-12-12-12--7-7-7-7-7-7-7--10-10-10-10-10-10-10--5-5-5-5-5-5-5--| X2
    A|-12-12-12-12-12-12-12--7-7-7-7-7-7-7--10-10-10-10-10-10-10--5-5-5-5-5-5-5--|
    E|-10-10-10-10-10-10-10--5-5-5-5-5-5-5--8--8--8--8--8--8--8---3-3-3-3-3-3-5--|
    
    e|-----------------|
    B|-----------------|
    G|-----------------|
    D|-----------------| x2
    A|-5-4h5--3-2h3----|
    E|--5---5------3---|
    
    Verse: Sinisid ko ang dagat...
    e|----------------5-5-5-5-5-5-5-----------------3-3-3-3-3-3-3--|
    B|----------------5-5-5-5-5-5-5-----------------3-3-3-3-3-3-3--|
    G|-7-7-7-7-7-7-7--6-6-6-6-6-6-6--5-5-5-5-5-5-5--4-4-4-4-4-4-4--|
    D|-7-7-7-7-7-7-7--7-7-7-7-7-7-7--5-5-5-5-5-5-5--5-5-5-5-5-5-5--| x2
    A|-5-5-5-5-5-5-5--7-7-7-7-7-7-7--3-3-3-3-3-3-3--5-5-5-5-5-5-5--|
    E|----------------5-5-5-5-5-5-5-----------------3-4-3-3-3-3-3--|
    
           Oh sabi nila...
    e|----------------5-5-5-5-5-5-5-----------------3-3-3-3-3-3-3--|
    B|----------------5-5-5-5-5-5-5-----------------3-3-3-3-3-3-3--|
    G|-7-7-7-7-7-7-7--6-6-6-6-6-6-6--5-5-5-5-5-5-5--4-4-4-4-4-4-4--|
    D|-7-7-7-7-7-7-7--7-7-7-7-7-7-7--5-5-5-5-5-5-5--5-5-5-5-5-5-5--|
    A|-5-5-5-5-5-5-5--7-7-7-7-7-7-7--3-3-3-3-3-3-3--5-5-5-5-5-5-5--|
    E|----------------5-5-5-5-5-5-5-----------------3-4-3-3-3-3-3--|
    
    Chorus: Hoy Pinoy ako...
    e|-10-10-10-10-10-10-10--5-5-5-5-5-5-5--8--8--8--8--8--8--8---3-3-3-3-3-3-3--|
    B|-10-10-10-10-10-10-10--5-5-5-5-5-5-5--8--8--8--8--8--8--8---3-3-3-3-3-3-3--|
    G|-11-11-11-11-11-11-11--6-6-6-6-6-6-6--9--9--9--9--9--9--9---4-4-4-4-4-4-4--|
    D|-12-12-12-12-12-12-12--7-7-7-7-7-7-7--10-10-10-10-10-10-10--5-5-5-5-5-5-5--| X2
    A|-12-12-12-12-12-12-12--7-7-7-7-7-7-7--10-10-10-10-10-10-10--5-5-5-5-5-5-5--|
    E|-10-10-10-10-10-10-10--5-5-5-5-5-5-5--8--8--8--8--8--8--8---3-3-3-3-3-3-5--|
    
    Interlude:
    e|--------------------------------------------------|
    B|--------------------------------------------------|
    G|-7/9-9-9-9-9/11-11-11-11-11-----------------------|
    D|-7/9-9-9-9-9/11-11-11-11-11-11-11-11-11-11-11-11--|
    A|-5/7-7-7-7-7/9--9--9--9--9--11-11-11-11-11-11-11--|
    E|----------------------------9--9--9--9--9--9--9---|
    
    e|---------------------------------------------------------------|
    B|---------------------------------------------------------------|
    G|---------------------------------------------------------------|
    D|-11-9/11-11-11-11-11/12-12-12-12-12-7/9-9-9-9-9/11-11-11-11-11-|
    A|-11-9/11-11-11-11-11/12-12-12-12-12-7/9-9-9-9-9/11-11-11-11-11-|
    E|--7/9--9--9--9---9/10-10-10-10-10-5/7-7-7-7-7/9--9--9--9--9----|
    
        A      D      C      G
    e|------|------|------|------|
    B|----3-|----2-|----1-|----3-|
    G|---2--|---2--|---0--|---0--|
    D|-0----|-2----|-2----|-0----| x2
    A|--0---|--0---|--3---|--2---|
    E|------|------|------|------|
    
    Bridge: Rinig mo ba...
    e|----------------5-5-5-5-5-5-5-----------------3-3-3-3-3-3-3-3-3-3-3-3-3-3|
    B|----------------5-5-5-5-5-5-5-----------------3-3-3-3-3-3-3-3-3-3-3-3-3-3|
    G|-7-7-7-7-7-7-7--6-6-6-6-6-6-6--5-5-5-5-5-5-5--4-4-4-4-4-4-4-4-4-4-4-4-4-4|
    D|-7-7-7-7-7-7-7--7-7-7-7-7-7-7--5-5-5-5-5-5-5--5-5-5-5-5-5-5-5-5-5-5-5-5-5|
    A|-5-5-5-5-5-5-5--7-7-7-7-7-7-7--3-3-3-3-3-3-3--5-5-5-5-5-5-5-5-5-5-5-5-5-5|
    E|----------------5-5-5-5-5-5-5-----------------3-4-3-3-3-3-3-3-3-3-3-3-3-3|
    
    Chorus: Hoy Pinoy ako...
    e|-10-10-10-10-10-10-10--5-5-5-5-5-5-5--8--8--8--8--8--8--8---3-3-3-3-3-3-3--|
    B|-10-10-10-10-10-10-10--5-5-5-5-5-5-5--8--8--8--8--8--8--8---3-3-3-3-3-3-3--|
    G|-11-11-11-11-11-11-11--6-6-6-6-6-6-6--9--9--9--9--9--9--9---4-4-4-4-4-4-4--|
    D|-12-12-12-12-12-12-12--7-7-7-7-7-7-7--10-10-10-10-10-10-10--5-5-5-5-5-5-5--| X2
    A|-12-12-12-12-12-12-12--7-7-7-7-7-7-7--10-10-10-10-10-10-10--5-5-5-5-5-5-5--|
    E|-10-10-10-10-10-10-10--5-5-5-5-5-5-5--8--8--8--8--8--8--8---3-3-3-3-3-3-5--|
    
    Outro:
    e|--------------------------------------------------|
    B|--------------------------------------------------|
    G|-7/9-9-9-9-9/11-11-11-11-11-----------------------|
    D|-7/9-9-9-9-9/11-11-11-11-11-11-11-11-11-11-11-11--|
    A|-5/7-7-7-7-7/9--9--9--9--9--11-11-11-11-11-11-11--|
    E|----------------------------9--9--9--9--9--9--9---|
    
    e|------------------------------------------------|
    B|------------------------------------------------|
    G|------------------------------------------------|
    D|-9/11-11-11-11-11/12-12-12-12-12-7-7-7-7-7-7-7--|
    A|-9/11-11-11-11-11/12-12-12-12-12-7-7-7-7-7-7-7--|
    E|-7/9--9--9--9---9/10-10-10-10-10-5-5-5-5-5-5-5--|
    
    e|--------------------------------------------------|
    B|--------------------------------------------------|
    G|-7/9-9-9-9-9/11-11-11-11-11-----------------------|
    D|-7/9-9-9-9-9/11-11-11-11-11-11-11-11-11-11-11-11--|
    A|-5/7-7-7-7-7/9--9--9--9--9--11-11-11-11-11-11-11--|
    E|----------------------------9--9--9--9--9--9--9---|
    
    e|---------------------------------------------------------------|
    B|---------------------------------------------------------------|
    G|---------------------------------------------------------------|
    D|-11-9/11-11-11-11-11/12-12-12-12-12-7/9-9-9-9-9/11-11-11-11-11-|
    A|-11-9/11-11-11-11-11/12-12-12-12-12-7/9-9-9-9-9/11-11-11-11-11-|
    E|--7/9--9--9--9---9/10-10-10-10-10-5/7-7-7-7-7/9--9--9--9--9----|
    
    
    kita nlng tau sa pulp summer slam...
    paki rate nlng ha...
    any comment just email me ok...
     

    Тональность:

    Нет текста!



    Назад
    Рекомендуем посмотреть другие песни исполнителя «Bamboo»:

    • Комментарии Facebook ()
    • Комментарии ВКонтакте



    Добавить в Избранное Браузера
    Сохранить здесь Очистить


    x

    0


    +
    -

    +
    -

    -

    Авторизация





    Зарегистрироваться

    M

    Дата и время

    • 11:18:54
       

    Социальные ссылки


    Наши приложения

    • Muzbank App Play Market
    • Muzbank Amazon App