MUZBANK



A Most Complete Bank Of Music Information

МУЗЫКАЛЬНО-ИНФОРМАЦИОННЫЙ БАНК

Поиск по сайту







    BBeach Boys • Surfin Usa (аккорды и текст - chords & lyrics)


    372

    Print

    Видео «Surfin Usa (Beach Boys)»

    Видео клипы к песне подбираются автоматически сайтом youtube. Возможны некоторые несоответствия клипов песне.

    ↑ Спрятать рекламу ↑



    Download


     
    
    
    e---------------------
    B---------------------
    G---------------------
    D--8-9-10-10-10-8-----
    A-10------------10-10-
    E---------------------
       4x
    e---------------------
    B---------------------
    G--8-9-10-10-10-8-----
    D-10------------10-10-
    A---------------------
    E---------------------
       2x
    e---------------------
    B---------------------
    G---------------------
    D--8-9-10-10-10-8-----
    A-10------------10-10-
    E---------------------
       2x
    e---------------------
    B---------------------
    G--10-11-12-12-12-10--
    D-12---------------12-
    A---------------------
    E---------------------
    
    e--------------------
    B--------------------
    G--8-9-10-10-10-8----
    D-10------------10---
    A--------------------
    E--------------------
    
    e--------------------
    B--------------------
    G--------------------
    D--8-9-10-10-10-8----
    A-10------------10---
    E--------------------
    
    e--------------------
    B--------------------
    G--------------------
    D-8------------------
    A-10-----------------
    E--------------------
       3x
    e--------------------
    B--------------------
    G--------------------
    D--------------------
    A-10-----------------
    E-8------------------
       12x
    e--------------------
    B--------------------
    G--------------------
    D-10-----------------
    A-8------------------
    E--------------------
       12x
    e--------------------
    B--------------------
    G--------------------
    D-12-----------------
    A-10-----------------
    E--------------------
       7x
    e--------------------
    B--------------------
    G--------------------
    D-10-----------------
    A-8------------------
    E--------------------
       7x
    e--------------------
    B--------------------
    G--------------------
    D--------------------
    A-10-----------------
    E-8------------------
       7x
     

    Тональность:

    Нет текста!



    Назад
    Рекомендуем посмотреть другие песни исполнителя «Beach Boys»:

    • Комментарии Facebook ()
    • Комментарии ВКонтакте



    Добавить в Избранное Браузера
    Сохранить здесь Очистить


    x

    0


    +
    -

    +
    -

    -

    Авторизация





    Зарегистрироваться

    M

    Дата и время

    • 13:25:03
       

    Социальные ссылки


    Наши приложения

    • Muzbank App Play Market
    • Muzbank Amazon App