MUZBANK



A Most Complete Bank Of Music Information

МУЗЫКАЛЬНО-ИНФОРМАЦИОННЫЙ БАНК

Поиск по сайту







    BBeatles • In My Life (tab) (аккорды и текст - chords & lyrics)


    307

    Print

    Видео «In My Life (tab) (Beatles)»

    Видео клипы к песне подбираются автоматически сайтом youtube. Возможны некоторые несоответствия клипов песне.

    ↑ Спрятать рекламу ↑



    Download


     
    
    
    Main Riff: E----5-----0-4-
                B--2---2-3-----
                G--2-----------
     
     There are places I`ll remember  
               A             F#m
     
     All my life though some have changed
            Bm Dm       A
     
     Some for ever not for better
              A            F#m
     
     Some have gone, and some remain.
               Bm Dm     A
     
     All these places have their moments
               F#m               Bm
     
     With lovers and friends, I still can recall
          G                     A
     
     Some are dead and some are living
              F#m               Bm
     
     In my life, I`ve loved them all
        D  Dm         A
     
     {Repeat main riff, and continue as verse above}
     
     But of all these friends and lovers
     There is no one compared with you
     And these memories lose their meaning
     When I think of love as something new
     Thought I know I`ll never lose affection
     For people and things that went before
     I know I`ll often stop and think about them
     In my life I`ll love you more
     In my life I`ll love you more
     
     At the end, there is the first riff above, then a higher Dm (played as a bar
     chord at the 5th fret) then the riff below:
     
                                  E7       A
     Last Riff: E----5-----0-4----4--2--4--5
                B--2---2-3--------3--------5
                G--2--------------4--------6
                D--------------------------7
     
     CHORD FORMATIONS:
     A   x 0 2 2 2 0
     F#m 2 4 4 2 2 2  (Bar across 2nd fret)
     Bm  x x 4 4 3 2
     Dm  x x 0 2 3 1
     G   3 2 0 0 3 3
     
     
     
     Date: Thu, 6 Jul 1995 19:24:42 -0400
     From: bd588@freenet.carleton.ca (Chris da Costa)
     Subject: In My Life by The Beatles
     
     Here`s my interpretation of the intro and finale to "In My Life" by The 
     Beatles. I encourage any corrections to be sent to bd588@freenet.carleton.ca.
     The chords are in a file which is already available. Enjoy!
     
     
     e -|-------5-------------------4---------5-------------------4-|
     B -|--2---------2----3----5---------2---------2----3----5------|
     G -|-----------------------------------------------------------|
     D -|-----------------------------------------------------------|
     A -|-----------------------------------------------------------|
     E -|-----------------------------------------------------------|            
        
         Then the ending:
     
     e -|--------5------------------4--------4----2----4---5--------|
     B -|---2--------2----3----5------------------------------------|
     G -|-----------------------------------------------------------|
     D -|-----------------------------------------------------------|
     A -|-----------------------------------------------------------|
     E -|-----------------------------------------------------------|
     

    Тональность:

    Нет текста!



    Назад
    Рекомендуем посмотреть другие песни исполнителя «Beatles»:

    • Комментарии Facebook ()
    • Комментарии ВКонтакте



    Добавить в Избранное Браузера
    Сохранить здесь Очистить


    x

    0


    +
    -

    +
    -

    -

    Авторизация





    Зарегистрироваться

    M

    Дата и время

    • 21:18:10
       

    Социальные ссылки


    Наши приложения

    • Muzbank App Play Market
    • Muzbank Amazon App