MUZBANK



A Most Complete Bank Of Music Information

МУЗЫКАЛЬНО-ИНФОРМАЦИОННЫЙ БАНК

Поиск по сайту







    BBeatsteaks • Summer (аккорды и текст - chords & lyrics)


    220

    Print

    Видео «Summer (Beatsteaks)»

    Видео клипы к песне подбираются автоматически сайтом youtube. Возможны некоторые несоответствия клипов песне.

    ↑ Спрятать рекламу ↑



    Download



     
    
    
    Alright im just tryin to post a better tab then the other one it just didnt
    sound right. I know its not perfect but i just spent a few trying to figuer it out.
    
    Tabbed by: Robbie Garcia
    
    E--------------
    B-9-9-9-9-9-9--
    G--------------  12x
    D--------------
    A--------------
    E--------------
    
    E-----------------------
    B-----------------------
    G-6-6-6-6-6-6-x-x-x-x-x-  4x
    D-6-6-6-6-6-6-x-x-x-x-x-
    A-4-4-4-4-4-4-x-x-x-x-x-
    E-----------------------
    
    
    E---------------
    B---------------
    G-6-6-6-6-6-6---  8x
    D-6-6-6-6-6-6---
    A-4-4-4-4-4-4---
    E---------------
    
    E---------------------------------------
    B---------------------------------------
    G--------------------------------------- 2x
    D-3-3-3-3-3--4-4-4-4-4--6-6-6-6-6-6-6-6-
    A-3-3-3-3-3--4-4-4-4-4--6-6-6-6-6-6-6-6-
    E-1-1-1-1-3--2-2-2-2-2--4-4-4-4-4-4-4-4-
    
    E-----------------------
    B-----------------------
    G-6-6-6-6-6-6-x-x-x-x-x-  4x
    D-6-6-6-6-6-6-x-x-x-x-x-
    A-4-4-4-4-4-4-x-x-x-x-x-
    E-----------------------
    
    E---------------------------------------
    B---------------------------------------
    G--------------------------------------- 2x
    D-3-3-3-3-3--4-4-4-4-4--6-6-6-6-6-6-6-6-
    A-3-3-3-3-3--4-4-4-4-4--6-6-6-6-6-6-6-6-
    E-1-1-1-1-3--2-2-2-2-2--4-4-4-4-4-4-4-4-
    
    E---------------------------
    B---------------------------
    G-6-6-6-6-6-6--------------- 8x
    D-6-6-6-6-6-6-6-6-8p6-------
    A-4-4-4-4-4-4---------9-8---
    E-------------------------9-
    
    E--------------
    B-9-9-9-9-9-9--
    G--------------  8x
    D--------------
    A--------------
    E--------------
    
    E---------------------------------------
    B---------------------------------------
    G--------------------------------------- 6x
    D-3-3-3-3-3--4-4-4-4-4--6-6-6-6-6-6-6-6-
    A-3-3-3-3-3--4-4-4-4-4--6-6-6-6-6-6-6-6-
    E-1-1-1-1-3--2-2-2-2-2--4-4-4-4-4-4-4-4-
    
    E-----------------------     
    B-----------------------
    G-6-6-6-6-6-6-x-x-x-x-x-  4x
    D-6-6-6-6-6-6-x-x-x-x-x-
    A-4-4-4-4-4-4-x-x-x-x-x-
    E-----------------------
    
    E-------
    B-------
    G-6~----
    D-6~----
    A-4~----
    E-------
     

    Тональность:

    Нет текста!



    Назад
    Рекомендуем посмотреть другие песни исполнителя «Beatsteaks»:

    • Комментарии Facebook ()
    • Комментарии ВКонтакте



    Добавить в Избранное Браузера
    Сохранить здесь Очистить


    x

    0


    +
    -

    +
    -

    -

    Авторизация





    Зарегистрироваться

    M

    Дата и время

    • 06:15:15
       

    Социальные ссылки


    Наши приложения

    • Muzbank App Play Market
    • Muzbank Amazon App