MUZBANK



A Most Complete Bank Of Music Information

МУЗЫКАЛЬНО-ИНФОРМАЦИОННЫЙ БАНК

Поиск по сайту







    BBeck • Minus (аккорды и текст - chords & lyrics)


    268

    Print

    Видео «Minus (Beck)»

    Видео клипы к песне подбираются автоматически сайтом youtube. Возможны некоторые несоответствия клипов песне.

    ↑ Спрятать рекламу ↑



    Download


     
    
    
    Minus
    Beck
    Tabbed by whoever
    
    1-------------------------
    2-------------------------
    3-----7-5-2-------7-5---5-
    4-0-0-------4-4-4-----7---
    
    Chorus
    1---------------------------------------
    2---------------------------------------
    3-5-5-555-5-555-2222-5-5-555-5-555-2222-
    4---------------------------------------
    
    1----------------------------------------
    2----------------------------------------
    3-0-0-000-0-000-/555---------------------
    4---------------------2-2-222-2-222-2222-
    
    Bridge
    Repeat
    1----------------------------------
    2---------11--11-11-11-11-11-11-11-
    3----------------------------------
    4-0-0-000--------------------------
    
    Then,
    1----------------------------
    2----------------------------
    3-5/1--5/1--2--(2)/12--0--2--
    4----------------------------
    
    Then play verse
    CHorus
    Bridge
    
    Outro 
    ----------------
    ----------------
    -3-5-3-5-3-5----
    -------------0--
     

    Тональность:

    Нет текста!



    Назад
    Рекомендуем посмотреть другие песни исполнителя «Beck»:

    • Комментарии Facebook ()
    • Комментарии ВКонтакте



    Добавить в Избранное Браузера
    Сохранить здесь Очистить


    x

    0


    +
    -

    +
    -

    -

    Авторизация





    Зарегистрироваться

    M

    Дата и время

    • 02:23:19
       

    Социальные ссылки


    Наши приложения

    • Muzbank App Play Market
    • Muzbank Amazon App