MUZBANK



A Most Complete Bank Of Music Information

МУЗЫКАЛЬНО-ИНФОРМАЦИОННЫЙ БАНК

Поиск по сайту







    BBecker Jason • Paganinis 5th Caprice (аккорды и текст - chords & lyrics)


    269

    Print

    Видео «Paganinis 5th Caprice (Becker Jason)»

    Видео клипы к песне подбираются автоматически сайтом youtube. Возможны некоторые несоответствия клипов песне.

    ↑ Спрятать рекламу ↑



    Download


     
    
    
    2x
    ------------------------------------------------|----------------------------
    ------------------------------------------------|----------------------------
    --------------------------14-12-10--------------|----------------------------
    ---10-14-10---12-14-12-10----------14-12-10-----|----------------------------
    -12---------14-----------------------------14---|----------------------------
    ------------------------------------------------|----------------------------
    
    -----------------------------------------------------------------------------
    -----------------------------------------------------------------------------
    --------------------------------------------------------10---------14--------
    ---11-14-11------12-15-12----9-12-9------10-14-10-----9---12-10------13-14---
    -12------------12----------10---------10-----------11-----------12-----------
    -----------------------------------------------------------------------------
                            2x
    -----12-16-12------|-------------------------------17-15-13------------------
    ---12--------12----|-----13-17-13------15-17-15-13----------17-15-13---------
    -13------------13--|---14--------14--16------------------------------16------
    -------------------|---------------------------------------------------------
    -------------------|---------------------------------------------------------
    -------------------|---------------------------------------------------------
    
    -------------17-15-13-----------19-17-15-------------------------------------
    ----14-17-14---------17-13--/15----------17-15-13----------------------------
    -14----------------------------------------------16-14-12--------------------
    ----------------------------------------------------------16-----------------
    -----------------------------------------------------------------------------
    -----------------------------------------------------------------------------
    
    -----------------------------------------------------------------------------
    ---13----------13-----------10--------8---------7-------7---------6----------
    -----12----------11-----------9--------7---------6--------6---------5--------
    -14----14---13-----13-----10---10---9----9-----8--8---7----7----7-----7------
    -----------------------------------------------------------------------------
    -----------------------------------------------------------------------------
    
    --------------3-----------7----10-------------12-----13----13----11-8--------
    --6-------------5-----------6-----------13--------------10------------10-----
    ----4-------5-----5-----7-------------9----12-----10-----------11------------
    -5----5----------------------------------------------------------------------
    -----------------------------------------------------------------------------
    -----------------------------------------------------------------------------
    
    ----15-12----------13-10--------20-19-17--------------19-17------------------
    ----------13------------12---------------20-18-17-18-------20-18-17-16---17--
    -12-------------12-----------17---------------------------------------16-----
    -----------------------------------------------------------------------------
    -----------------------------------------------------------------------------
    -----------------------------------------------------------------------------
    
    
    -------------------------15-13-12----------------------11-14--17-20---20-15--
    -17-20-18-17-----------15--------15-13-12------------13--------------------17
    ------------19-18----14------------------14-12--11-14------------------------
    -----------------------------------------------------------------------------
    -----------------------------------------------------------------------------
    -----------------------------------------------------------------------------
    
    -------------------------15-10--------------------------20-20-19-18-17-16----
    ------------------------------12---------------------------------------------
    17------------17----------------12----------12-------------------------------
    --17-14--14-17--17-14-------------12-9--9-12--12-9---------------------------
    -------15------------15---------------10------------15-----------------------
    -----------------------------------------------------------------------------
    
    -16-15-14-13-12-------------------------------------------------------------
    -----------------16-15-14-13--------------------------------10-8--8----------
    ----------------------------16-15-14-13--12-11-10-9--8-7--9-------10-7------
    ---------------------------------------------------------10-----9------------
    -----------------------------------------------------------------------------
    -----------------------------------------------------------------------------
    
    -----------------------------------------------------------------------------
    --------------8-------------------8------------------------------------------
    ----9-----------10-7----9-----------10-7----9-7-------10-7---------------7---
    -10-----10--9--------10-----10--9--------10-----10--9-----9--7-10-9-7-6--9-6
    ------10-----------------10--------------------------------------------------
    -----------------------------------------------------------------------------
    
    -----------------------------------------------13-----------12---------10----
    ---8----------8---------6---------5--------------13-----------14---------10--
    -----9----------9---------5---------5--------------14----12-----12---10----10
    -10----10---9-----9---7-----7---5-----5--------------------------------------
    --------------------------------------------12-------------------------------
    -----------------------------------------------------------------------------
    
    -----9---------10-----------7---------6----------5-----------18----------17--
    -------8----------10---------10---------6----------4-----------18----------17
    --9------9---10-----10----8----8----7-----7---5------5-----------21----18----
    -----------------------------------------------------------------------------
    ----------------------------------------------------------17-----------------
    -----------------------------------------------------------------------------
    
    ----------15------------14---------15-----------13----------11----------10---
    ------------15------------13---------15-----------15----------11----------9--
    -18-----15----15------14----14---15----15----13------13---12----12----10---10
    -----------------------------------------------------------------------------
    -----------------------------------------------------------------------------
    -----------------------------------------------------------------------------
    
    ----11------------10------------20------------19-----------19-19-18-17-16----
    ------11------------9-------------20------------18---------------------------
    -12-----12-----10----10------/20----20-----19-----19---17--------------------
    -----------------------------------------------------------------------------
    -----------------------------------------------------------------------------
    -----------------------------------------------------------------------------
    
    -15-14-13-12-----------------------------------------------------------------
    ------------16-15-14-13-------------------------------------9-8--------------
    -----------------------16-15-14-13--12-11-10-9------------9------12-10------
    -----------------------------------------------12-11-10--10-----10-----12-10-
    -----------------------------------------------------------------------------
    -----------------------------------------------------------------------------
    
    -16-15-14-13--12-11-10-9-----------------------------------------------------
    -------------------------13-12-11-109---------------------------------------
    --------------------------------------12-11-10-9----------------------10-----
    ------------------------------------------------13-12-11-10---------10--13---
    -----------------------------------------------------------14-13--12------12-
    -----------------------------------------------------------------------------
    
    
    -----------------------------------------------------------------------------
    -------------9---------7------11----------9-----------13---------------------
    --------------8---------9-------10---------10-----------12---------12-10-----
    -13-11-----10---10---7---10--8----10-----9---12-----10----13-----11-----11---
    ------13---------------------------------------------------------------------
    -----------------------------------------------------------------------------
    
    --------------12-----19-16---------------------------------------------------
    ---------13-----13--------18-----------------------------------14------------
    ---12--9----12--------------17------------13--------------14-15--15-13-------
    -9----------------------------18-----14-15--15-13-11-10----------------15-13-
    -------------------------------------------------------13--------------------
    -----------------------------------------------------------------------------
    
    ------15-16^11---------------------------------------------------------------
    -15-16--------13-----------------------------------------------14-13-11------
    ----------------13-12-13-12------------10-13-10----11-13-11-10---------13-11-
    ---------------------------13-11--11-11---------14---------------------------
    -----------------------------------------------------------------------------
    -----------------------------------------------------------------------------
    
    -----------------------------------------------------------------------------
    ------------------------12--------12-----------------------------------------
    -10-------10-13-10----13--13----13--13------11-15-11----12-15-12-----13-15-13
    ---13---11----------11--------12---------13-----------13-----------15--------
    -----------------------------------------------------------------------------
    -----------------------------------------------------------------------------
    
    -----------------------------------------------------------------------------
    ----16-15-13----------------------------14---------14---------------------16-
    -12---------15-13-12------12-15-12----15--15-----15--15-----13-17-13----17---
    --------------------15-13-----------13---------14---------15----------16-----
    -----------------------------------------------------------------------------
    -----------------------------------------------------------------------------
    
    ----------------------13----------14-11-----12-------------------------------
    ---------18-------------15-------------11-11--11-14--------------------------
    -17--------18-15----13----13----11-----------------11-14------------11-16-11-
    ------15------------------------------------------------14-11-----13---------
    -------------------------------------------------------------13-14-----------
    -----------------------------------------------------------------------------
    
    -----------------------------------------------------------------------------
    ----------------------14-11--------------------------------------------------
    -------11-16-11------------12-------------8-13-8----8-13-8------13-16-13---14
    -13--13--------13---13-------13-11-------9------9--9------9---14---------16--
    ---14------------14---------------13---11--------11--------------------------
    -----------------------------------------------------------------------------
    
    -----------------------------------------------------------------------------
    -----------12--17-12-----13-17-13-----14-18-14----16-19-16-----16-21-16------
    -16-14---14------------14-----------15----------16-----------17--------------
    -----------------------------------------------------------------------------
    -----------------------------------------------------------------------------
    -----------------------------------------------------------------------------
    
    --------------------------------16-19-16-----15-18-15------14-19-14-----13-16
    ---17-22-17------19-24-19-----17-----------17-----------16------------15-----
    -18------------20------------------------------------------------------------
    -----------------------------------------------------------------------------
    -----------------------------------------------------------------------------
    -----------------------------------------------------------------------------
    
    -13-------12-17-12------11-14-11-----10-15-10-----9-12-9-----8-13-8-----8-11-
    --------14------------13-----------12----------11----------10---------10-----
    -----------------------------------------------------------------------------
    -----------------------------------------------------------------------------
    -----------------------------------------------------------------------------
    -----------------------------------------------------------------------------
    
    
    -8----7-12-7------6-9-6-----5-10-5-----5-10-5--5---11-5-11-5-11-5-11-6-------
    ----9-----------8---------7----------6-------6-------------------------------
    -----------------------------------------------------------------------------
    -----------------------------------------------------------------------------
    -----------------------------------------------------------------------------
    -----------------------------------------------------------------------------
    
    -12-7--7-12----12------5-10-5---5-10-5-----7-12--16-12-----------------------
    -----9---------------6--------6--------9-9------------13------13-17-13--15-17
    --------------------------------------------------------13--14--------16-----
    -----------------------------------------------------------------------------
    -----------------------------------------------------------------------------
    -----------------------------------------------------------------------------
    
    -------17-15-13-------------------------------------17-15-13--------------15-
    -15-13---------17-15-13-------13-17-13--15-17-15-13---------17-15-14---15---
    -----------------------16---14--------16-----------------------------14------
    -----------------------------------------------------------------------------
    -----------------------------------------------------------------------------
    -----------------------------------------------------------------------------
    
    -----------------------------------------------------------------------------
    -18-17-15---------18-17-15--------------17-15----------------15-13-----------
    ---------17-16--17---------17-16-14--16------17-16-14-13---14-----16-14-12---
    --------------17-------------------15-------------------14----------------15-
    -----------------------------------------------------------------------------
    -----------------------------------------------------------------------------
    
    --------------------------12-8-----------13-10-----------------16-15-14-13---
    -------16-13------------------10--------------12-----------------------------
    ------------14------------------9---------------13-10------------------------
    -14-13--------16-13--------------10------------------12-9--------------------
    -------------------15-12-----------12-7------------------11-12---------------
    -----------------------------------------------------------------------------
    
    -12-11-10-9------------------------------------------------------------------
    ------------13-12-11-10------------------------------------------------------
    -----------------------13-12-11-10-------------------------10-9--------------
    -----------------------------------14-13-12-11-----------10------14-12-------
    -----------------------------------------------15-14---12------11-----14-12--
    -----------------------------------------------------------------------------
    
    -----------------------------------------------------------------------------
    -----------------------------------------------------------------------------
    -----------9------------------9--------------------9---------------------9---
    -10-9-12-10----9----10-9-12-10----9-----10-9-12-10--10---9----10-9-12-10--10-
    ------------11---12------------11--12-----------------11---12----------------
    -----------------------------------------------------------------------------
    
    -------------------------------8-12-8-----8---/15b~-----15-13-12--12-13-12-10
    ------------------5-10-5-5---10------10-10----------------------15-----------
    -----------------5------5---9----------9-------------------------------------
    ----9-----------7------------------------------------------------------------
    -11---12~------7-------------------------------------------------------------
    ------------5-8--------------------------------------------------------------
    
    -12-10--10-------------------------------------------------------------------
    ------13--13-12-10-----------------------------------------------------------
    ------------------12-10-9-10---7---------------------------------------------
    --------------------------------9-7-9-7--------------------------------------
    ---------------------------------------10--12-10-8-10-8--8-------------------
    -------------------------------------------------------12-12-10--10-8-75----
    
                                                                 1/2
    ---------------------------8-12-8------8---/17-12------12---19b~-------------
    --------5-10-5-----5-----10------10--10----------13--13----------------------
    ------5-------5--5------9----------9---------------14------------------------
    -----7---------7-------------------------------------------------------------
    ----7------------------------------------------------------------------------
    -5-8-------------------------------------------------------------------------
    
    --17---^19^17--17------------------------------------------------------------
    -------------20--18-20-18-17-------------------------------------------------
    ----------------------------19-17-17-16-14--14-12-14-12--12-----------------
    --------------------------------------------------------15--14-15-14-14-12---
    --------------------------------------------------------------------------14-
    -----------------------------------------------------------------------------
    
    -----------------------------------------------------------------------8-12-8
    --------------------------------------------------------5-8-5---5----10------
    -------------------------------------------------------5-----5-5----9--------
    ------------------------------------------------------7-------7--------------
    -15-14-12-14-12-14-12-10-----------------------------7-----------------------
    ------------------------13-10-12-10--10-8-75-7-8-5-8------------------------
    
    ------8---/17-12------12---20-17------17---22b~-----------20-19-17-19-17--17-
    -10-10----------13--13----------17--17----------------------------------20---
    ---9--------------14--------------17-----------------------------------------
    -----------------------------------------------------------------------------
    -----------------------------------------------------------------------------
    -----------------------------------------------------------------------------
    
    
    -------17--------------------------------------------------------------------
    -20-18----20-18-17-17-20-18-17-15-15-18-15-----------------------------------
    ------------------------------------------17-16-14---------------------------
    ---------------------------------------------------15-16-15-14-14-13-13-15-12
    -----------------------------------------------------------------------------
    -----------------------------------------------------------------------------
    
    -------------------------------------------------------------------------8-12
    -----------------------------------------------------------------------10----
    ---------------------------------------------------------5-9-5----5---9------
    -13------------------11^15^1110------------------------7-----7-7------------
    ----15-14-15-14-12---------------12-10-8---------------7-------7-------------
    ------------------15--------------------12-10-87---5-8----------------------
    
    -8-----8---15b--15b~-----15-13-12--12-13-17-12-13--12--------------------12--
    --10-10--------------------------15--------------15--15-13-15-13-12-13-15----
    ----9------------------------------------------------------------------------
    -----------------------------------------------------------------------------
    -----------------------------------------------------------------------------
    -----------------------------------------------------------------------------
    
    -13-12-10-12-10--10----------------------------------------------------------
    ---------------13--13-12-10--------------------------------------------------
    ---------------------------12-9-10-------------------------------------------
    ----------------------------------12-9-10--------------------9-10-9-10-9-----
    -----------------------------------------10-12-10-8--8-10-12------------10-12
    ---------------------------------------------------12------------------------
    
    -----------------------------------------------------------------------------
    -----------------------------------------------------------------------------
    -----------------------------------------------------------------------------
    ---------------------------------------------------------------7-8-9-10---10-
    -10-8------------------------------------------6----8-10-11-12---------------
    -----10-12-10-8-10-8-10---5-6-7-8--6-7-8-9/10---7---------------------------
    
    -----------------------------------------------------------------------------
    ---------------------------10-8-7-6------------------------------------------
    ----------9-10-11-12-/13---------------8-7-6-5-------------------------------
    -11-12-13--------------------------------------9-8-7-6-----------------------
    -------------------------------------------------------11-10-9-8--7-6-5-4----
    --------------------------------------------------------------------------8-7
                                           w/bar ->
    ----------------------------8-12-8-----/15b~-----12--------------------------
    ----------5-10-5-----5----10------10--------------------10-------------------
    --------5-------5--5-----9----------9-------------------------9--------------
    ------7----------7------------------------------------------------7----------
    ----------------------------------------------------------------------7------
    -6-5----------------------------------------------------------------------5--
    
    -----------------------------------------------------------------------------
    -----------------------------------------------------------------------------
    ----------2------------------------------------------------------------------
    ----------2------------------------------------------------------------------
    ----------0------------------------------------------------------------------
    ---0-------------------------------------------------------------------------
    Any Corrections please send to soykirby@hotmail.com
    VIVA MEXICO CABRONES!!!
     

    Тональность:

    Нет текста!



    Назад
    Рекомендуем посмотреть другие песни исполнителя «Becker Jason»:

    • Комментарии Facebook ()
    • Комментарии ВКонтакте



    Добавить в Избранное Браузера
    Сохранить здесь Очистить


    x

    0


    +
    -

    +
    -

    -

    Авторизация





    Зарегистрироваться

    M

    Дата и время

    • 17:23:08
       

    Социальные ссылки


    Наши приложения

    • Muzbank App Play Market
    • Muzbank Amazon App