MUZBANK



A Most Complete Bank Of Music Information

МУЗЫКАЛЬНО-ИНФОРМАЦИОННЫЙ БАНК

Поиск по сайту







    BBecker Jason • Perpetual Burn (аккорды и текст - chords & lyrics)


    191

    Print

    Видео «Perpetual Burn (Becker Jason)»

    Видео клипы к песне подбираются автоматически сайтом youtube. Возможны некоторые несоответствия клипов песне.

    ↑ Спрятать рекламу ↑



    Download



     
    
    
    Jason Becker/Perpetual Burn
                                 Perpetual Burn
    
    
                                                            2x
    ----------------17-----------------17------------|-----------------17--|-----|
    17-12------12-17---17-12------12-17---17-12------|-17-13------13-17----|-----|
    -----12--12-------------12--12-------------12----|------14--14---------|-----|
    -------14-----------------14-----------------14--|--------15-----------|-----|
    -------------------------------------------------|---------------------|-----|
    -------------------------------------------------|---------------------|-----|
    
    ---------------------------------------17------------------17----------------|
    -------17-13-----------16-11------11-16----16-11------11-16----16-11---------|
    ------------14--------------14--14--------------14--14--------------14-------|
    --------------15--------------13------------------13------------------13-----|
    -----------------------------------------------------------------------------|
    -----------------------------------------------------------------------------|
    
    -----------------17-----------------17---------------------------------------|
    -17-12------12-17---17-12------12-17-----------------------------------------|
    ------12--12-------------12--12----------------------------------------------|
    --------14-----------------14------------------------------------------------|
    -----------------------------------------------------------------------------|
    -----------------------------------------------------------------------------|
    
    -----------------17-----------------17---------------------------------------|
    -17-12------12-17---17-12------12-17-----------------------------------------|
    ------12--12-------------12--12----------------------------------------------|
    --------14-----------------14------------------------------------------------|
    -----------------------------------------------------------------------------|
    -----------------------------------------------------------------------------|
    
    -17-16-17-20-17-16-----------------------------------------------------------|
    ------------------17-18-17-15------------------------------------------------|
    -----------------------------17-16-14-16-13~--13-14-16-17-16-14-13-----------|
    ------------------------------------------------------------------15-14------|
    -----------------------------------------------------------------------------|
    -----------------------------------------------------------------------------|
    
    --------------------------12-17-12----------8-12-8----------12---------------|
    ------------------------13--------13------10------10------13--15-13-12-------|
    ----------------------14------------14---9----------9---14------------14-13--|
    -----------------------------------------------------------------------------|
    -15-14-12-11-----------------------------------------------------------------|
    ------------13-12~-----------------------------------------------------------|
    
    ----------------------------------------------------------------8-13-8-------|
    --------------------------------------------------------------10------10--10-|
    -13-14-16-17-16-14-13---------------------------------------10----------10---|
    ----------------------15-14-------------------------------10-----------------|
    ----------------------------15-14-12-11--12~---------8-12--------------------|
    ---------------------------------------12--------5-8-------------------------|
    
    --8-13-8--------------------8---17-12--------------------12------------------|
    --------10----------------10---------13----------------13--------------------|
    ----------10-------------9-------------14------------14----------------------|
    ------------10-------7-10----------------14--------14------------------------|
    --------------12----7----------------------15-12-15--------------------------|
    -----------------5-8---------------------------------------------------------|
    
    ------------------------------------------7-8--------------------------------|
    ---------------10-7------7-4-------------9-9-10--10--------------------------|
    -----------8-11----8---------5----------9------10----10----------------------|
    -------7-10---------7---------4--------9-----------10----10------------------|
    ----6-9--------------9---------6---7-11----------------12--------------------|
    -5-8-------------------------------------------------------------------------|
    
    --------7-8--------------------3-8-3-7-4---------------3-8-3-7---------------|
    -------9-9-10-----------------5---------5-------------5----------------------|
    ------9------10--------------5-----------4-----------5-----------------------|
    -----9---------10-----------5-------------6---------5------------------------|
    -7-11------------6-8-6---3-7---------------7-5-7-3-7-------------------------|
    -----------------------------------------------------------------------------|
    
    -4---4--12-8-----------------------------------8-12-13-12-10-----------------|
    --5-5-------10------------------------13-----10-------------13-12-10-12-10-9-|
    ---4----------9---------2-----5----------------------------------------------|
    ---------------10----------0-2-----------------------------------------------|
    -----------------12--0-3--------12/15---1512--------------------------------|
    -----------------------------------------------------------------------------|
    
    -----------------------------------------------------------------------------|
    -----------------------------------------------------------------------------|
    -12-10-9--------10-9-7--------9-7-5------------------------------------------|
    --------12-10-9--------10-9-7-------9-7-6------------------------------------|
    ------------------------------------------8-7-5------------------------------|
    -----------------------------------------------8-7-5-4~----------------------|
    
    
    --17-16-17-20-17-16----------------------------------------------------------|
    -------------------17-18-17-15-----------------------------------------------|
    ------------------------------17-16-14-16-13~--13-14-16-17-16-14-13----------|
    -------------------------------------------------------------------15-14-----|
    -----------------------------------------------------------------------------|
    -----------------------------------------------------------------------------|
    
    -------------------------12-17-12----------8-12-8----------12----------------|
    -----------------------13--------13------10------10------13---15-13-12-------|
    ---------------------14------------14---9----------9---14-------------14-13~-|
    -----------------------------------------------------------------------------|
    -15-14-12-11-----------------------------------------------------------------|
    ------------13-12~-----------------------------------------------------------|
    
    -----------------------------------------------------------------------------|
    -----------------------------------------------------------------------------|
    -13-14-16-17-16-14-13--------------------------------------------------------|
    ---------------------15-14---------------------------------------------------|
    ---------------------------15-14-12-11--12~----------------------------------|
    --------------------------------------12-------------------------------------|
    
    -----------------------------------------------16-13----------------9--------|
    ----7-----10-----7-----10-----7---------------------14------------10---------|
    ---7----7------7------7-----7-----------9-10-12-------13--------11-----------|
    -0-----0-----0------0-----0------9-10-12----------------15--15---------------|
    -------------------------------12-------------------------16-----------------|
    -----------------------------------------------------------------------------|
    
    --14-17-14----------------------------9-------------9-14-9-------9-14-10-----|
    ----------14------------------------10---------------------10--10-------12---|
    ------------14-13-9-----------11--11-------------------------11-----------11-|
    -------------------11-------11--11-------------------------------------------|
    ---------------------12-9-12-------------------------------------------------|
    -----------------------------------------------------------------------------|
    
    ---9-14-9------9-14-9------9-14-9------9-14-10------9-14-9------9------------|
    -12------10--10------10--10------10--10-------12--12------10--10-------------|
    -----------11----------11----------11-----------11----------11---------------|
    -----------------------------------------------------------------------------|
    -----------------------------------------------------------------------------|
    -----------------------------------------------------------------------------|
    
    -14-16-17-12------12-17-13------12-17-12------12-17-12------12-17-12------12-|
    ------------13--13--------15--15--------13--13--------13--13--------13--13---|
    --------------14------------14------------14------------14------------14-----|
    -----------------------------------------------------------------------------|
    -----------------------------------------------------------------------------|
    -----------------------------------------------------------------------------|
    
    -17-13------12-17-12------12--17-19-20-17------17---15-12------12--13-10-----|
    ------15--15--------13--13---------------17--17----------12--12---------10---|
    --------14------------12-------------------17--------------12-------------10-|
    -----------------------------------------------------------------------------|
    -----------------------------------------------------------------------------|
    -----------------------------------------------------------------------------|
    
    ---10---15-12------12---14-9------9----------------------17------------------|
    -10----------13--13---------10--10-------17-12------12-17------17-12------12-|
    ---------------12-------------11--------------12--12----------------12--13---|
    ------------------------------------------------14--------------------14-----|
    -----------------------------------------------------------------------------|
    -----------------------------------------------------------------------------|
    
    ----17------------------------------------17--------------------17------------|
    -17-------17-12-----------17-13------13-17------17-13------13-17----17-13-----|
    ---------------12--------------14--14----------------14--14--------------14---|
    -----------------14--------------15--------------------15------------------15-|
    ------------------------------------------------------------------------------|
    ------------------------------------------------------------------------------|
    
    
    ------------9-14-9------9--17-14------14--12-10-9--------------------14-19-14-|
    ----------10------10--10--------14--14-----------12-10-9-----------15---------|
    --------11----------11------------14-----------------------------16-----------|
    ------11-------------------------------------------------------16-------------|
    --9-12----------------------------------------------------14-17---------------|
    ------------------------------------------------------------------------------|
    
    ------------------10-14-10-------------15-14-12----14-9------9--17-14------14-|
    -15-------------12--------12---15-14-12----------------10--10--------14--14---|
    ---16---------11------------11---------------------------11------------14-----|
    -----16-----------------------------------------------------------------------|
    -------17-14------------------------------------------------------------------|
    ------------------------------------------------------------------------------|
    
    -21-17------17--21-17------17---22-17--------------------17--19-17-15---------|
    ------19--19---------19--19----------19----------------19------------19-17-15-|
    --------18-------------18--------------19------------19-----------------------|
    -----------------------------------------19-16--16-19-------------------------|
    ----------------------------------------------17------------------------------|
    ------------------------------------------------------------------------------|
    
    ---------------------------16-14-12-------------------------------------------|
    -----------------------------------15-14-12-----------------------------------|
    -17-16-14----------------------------------14-13-11---------------------------|
    ---------17-16-14----------------------------------14-12-11-------------------|
    -----------------17-15-14----------------------------------14-12-11-----------|
    -------------------------------------------------------------------14-12-10-9-|
    
    -9-5---5---12-9-----9--17-12--------------------12----13-9----9---21-16-------|
    ----5-5--------10-10--------14----------------14----------9--9---------18-----|
    -----6-----------9------------14------------14-------------10------------18---|
    --------------------------------14-11--11-14-------------------------------18-|
    -------------------------------------12---------------------------------------|
    ------------------------------------------------------------------------------|
    
                                  tapping 4x      4x      4x      4x
    
    --------------16-21-16--------------14-5-9--16-5-9--14-5-9--13-5-9-----------|
    ------------18--------18-----------------------------------------------------|
    ----------18------------18---------------------------------------------------|
    -15--15-18----------------18-15----------------------------------------------|
    ---16--------------------------16--------------------------------------------|
    -----------------------------------------------------------------------------|
    
       4x      4x     4x    4x         4x     8x
    
    -10-2-5--7-2-5--9-2-5--9-1-4------9-2-5--8-2-5--12-2-5-11-2-5-10-2-5-9-2-5---|
    -----------------------------------------------------------------------------|
    -----------------------------------------------------------------------------|
    -----------------------------------------------------------------------------|
    -----------------------------------------------------------------------------|
    -----------------------------------------------------------------------------|
    
    
                               t 4x    t    t 4x     t    t 4x    t
    ---------------------------6-5-6---7----6-5-6----7----6-5-6---7----/16~------|
    -12-5-9--12-4-9--12-3-9------------------------------------------------------|
    -----------------------------------------------------------------------------|
    -----------------------------------------------------------------------------|
    -----------------------------------------------------------------------------|
    -----------------------------------------------------------------------------|
    
    ---5-10-5--------10-14-10-10------17-14------------------------14------------|
    --7------7-----10-----------10---------15--------------------15--------------|
    -7--------7--11---------------11---------14----------------14----------------|
    -------------------------------------------16------------16------------------|
    ---------------------------------------------17-12--12-17--------------------|
    --------------------------------------------------14-------------------------|
    
    -12-9--------17-12------------12-9--------9-5----------------2-7-2---2-------|
    -----10-----------14--------------10---------5--------------4-----4-4--------|
    -------9------------14--------------9---------6------------4-------4---------|
    --------11------------14-11----------11--------7--------1-4------------------|
    ----------12---------------12---------12--------7-4----2---------------------|
    ---------------------------------------------------5-------------------------|
    
    
    --11-7---7-----------12-14-16-14-12-------------------------------------12---|
    ------7-7----12-14-15--------------15-14-12--15-14-12-----------12-14-15--15-|
    -------6---------------------------------------------14-13-11----------------|
    -----------------------------------------------------------------------------|
    -----------------------------------------------------------------------------|
    -----------------------------------------------------------------------------|
    
    -----------------14---------------15----------------17------19-15------15----|
    -14-12---14-15-17--17-15--15-17-19--19-17---17-19-21--20-19------15--15------|
    -------------------------------------------------------------------16--------|
    -----------------------------------------------------------------------------|
    -----------------------------------------------------------------------------|
    -----------------------------------------------------------------------------|
    
    --15-10------10--10-7---------------7--7-2---2---10-7---7--14-10------10-----|
    -------12--12--------8-------------8------3-3--------7-7--------12--12-------|
    ---------12-----------7-----------7--------4----------7-----------11---------|
    -----------------------9---------9-------------------------------------------|
    ------------------------10-5-5-10--------------------------------------------|
    ----------------------------7------------------------------------------------|
    
    --19-14------14---19-14--14------14-10------10----10-7-------------7---------|
    -------15--15----------15--15---------12--12----------7-----------7----------|
    ---------16------------------16---------11-------------7---------7-----------|
    --------------------------------------------------------9-------9------------|
    ---------------------------------------------------------9-5-5-9-------------|
    ------------------------------------------------------------7----------------|
    
    ---------12-14-12----------------14-16-14---------------16-17-16-------------|
    -12-14-16--------16-14---14-16-17--------17-16--16-17-19--------19-17--17-19-|
    -----------------------------------------------------------------------------|
    -----------------------------------------------------------------------------|
    -----------------------------------------------------------------------------|
    -----------------------------------------------------------------------------|
    
    ---17-19-17------------------------------------------------------------------|
    -21--------21-19-------------------------------------------------------------|
    -----------------------------------------------------------------------------|
    -----------------------------------------------------------------------------|
    -----------------------------------------------------------------------------|
    -----------------------------------------------------------------------------|
    
    -----------------------------------9-11-12-11-9------------------------------|
    ----------------------------9-11-12------------------------------------------|
    --9-8-6---------------8-9-11------------------------------8-9-11-9-8---------|
    -6------9-8-6------------------------------------9-8-6-8-9----------11-9-8-6-|
    -----------------------------------------------------------------------------|
    -----------------------------------------------------------------------------|
    
    ---|--------------------------------9-11-12-11-9--------------------------|--|
    ---|-------------------------9-11-12--------------------------------------|--|
    -3x|--9-8-6------------8-9-11-----------------------------6-8-9-8-6-------|--|
    ---|-6------9-8-6--------------------------------9-8-6-8-9----------9-8-6-|--|
    ---|----------------------------------------------------------------------|--|
    ---|----------------------------------------------------------------------|--|
    
    -----------------------------------9-11-12-11-9------------------------------|
    ----------------------------9-11-12------------------------------------------|
    --9-8-6---------------8-9-11------------------------------8-9-11-9-8---------|
    -6------9-8-6------------------------------------9-8-6-8-9----------11-9-8-6-|
    -----------------------------------------------------------------------------|
    -----------------------------------------------------------------------------|
    
    ------------------------------------9-11-12-11-9-----------------------------|
    -----------------------------9-11-12-----------------------------------------|
    ------9-8-6------------8-9-11-----------------------------6-8-9-8-6----------|
    -----6------9-8-6--------------------------------9-8-6-8-9----------9-8-6----|
    -----------------------------------------------------------------------------|
    -----------------------------------------------------------------------------|
    
    -----------------------------------9-11-12-11-9------------------------------|
    ----------------------------9-11-12------------------------------------------|
    --9-8-6---------------8-9-11------------------------------6-8-9-8-6----------|
    -6------9-8-6------------------------------------9-8-6-8-9----------9-8-6----|
    -----------------------------------------------------------------------------|
    -----------------------------------------------------------------------------|
    
    -----------------------------------9-11-12-11-9------------------------------|
    ----------------------------9-11-12------------------------------------------|
    --9-8-6---------------8-9-11------------------------------8-9-11-9-8---------|
    -6------9-8-6------------------------------------9-8-6-8-9----------11-9-8-6-|
    -----------------------------------------------------------------------------|
    -----------------------------------------------------------------------------|
    
    
    ------------11-16-11---14-12-11----------------------------------------------|
    ----------12-------------------14-12-11----------------11-12--14---12-14-12-|
    --------13-----------------------------13-11------11-13----------------------|
    ----9-13------------------------------------14-13----------------------------|
    --11-------------------------------------------------------------------------|
    -----------------------------------------------------------------------------|
    
    ---------------------------------11---12---11-12-11-9-11----------12-14-16--|
    -11-12---9-11-12-12b~----11-12-14--------------------------12-14-16----------|
    -----------------------------------------------------------------------------|
    -----------------------------------------------------------------------------|
    -----------------------------------------------------------------------------|
    -----------------------------------------------------------------------------|
    
    -18~-----18-19-18-16---------------------------------------------------------|
    --------------------19-17-16-------------------------------------------------|
    ----------------------------18-16-15------------16-1513-15-1311-13-119-11-|
    ------------------------------------18-16-14---------------------------------|
    --------------------------------------------18-------------------------------|
    -----------------------------------------------------------------------------|
    
    -----------------------------------------------------------------------------|
    -----------------------------------------------------------------------------|
    -98-9-86-8-6---9-8-6-6-8-9--9-11-8-9-8--8----------------------------------|
    ----------------------9-----------------11-11-9---9-11-9-8--9-8-6------------|
    -----------------------------------------------------------------------------|
    -----------------------------------------------------------------------------|
    
    ---------------7-11---4-7-4---------4--7-4-----------------------------------|
    ---------9-4-9-----------4--4----4---4--------9-8------8---------------------|
    ---8-4-8-------------------4--4---4--------------11-9-8-11-9-8-11-9-8--------|
    --6--------------------------6--6------------------------------------8-12-9--|
    -----------------------------------------------------------------------------|
    -----------------------------------------------------------------------------|
    
    
                                                                2x
    ------------9-12-9---12-14-129-12-9--9-12-|12-14-12--------------------12-14-|
    ----------10------10----------------10-----|--------14----------------14------|
    ---------9---------------------------------|----------14------------14--------|
    -8-6-8-11----------------------------------|------------14-11--11-14----------|
    -------------------------------------------|-----------------12---------------|
    -------------------------------------------|----------------------------------|
    
                    2x
    -|--17--20-17------------------17-|---------------------------------------------|
    -|----20-----20-17--------17-20---|---------------------------------------------|
    -|----------------19-17-19--------|---------------------------------------------|
    -|--------------------------------|---------------------------------------------|
    -|--------------------------------|---------------------------------------------|
    -|--------------------------------|---------------------------------------------|
    
    
    -15^17^15^13----13^15^13^12----12^13^12^10-----------------------------------|
    -------------------------------------------15^17^15^13---13^15^13^12---------|
    -----------------------------------------------------------------------------|
    -----------------------------------------------------------------------------|
    -----------------------------------------------------------------------------|
    -----------------------------------------------------------------------------|
    
    ------------------------10-12-13-12-10---------------------------------------|
    --12^13^12^10---10-12-13--------------13-12-10-------------------------------|
    ----------------------------------------------12-10-9-------12-10-9-10-9--9--|
    -----------------------------------------------------12-10-9------------12---|
    -----------------------------------------------------------------------------|
    -----------------------------------------------------------------------------|
    
    ------------------------------------------13-15-13-17-13---------------------|
    ----------------------------------------13--------------13-------------------|
    --------------------------------------14------------------14-----------------|
    -12-10-9----------------------------15----------------------15------------15-|
    --------12-10-8-------------------15--------------------------15--------15---|
    ---------------12-10-8-------13-17------------------------------17-13-17-----|
    
    ------------13-17-13--20-13---------------------13-17-------------8-13-8-----|
    ---13-----13--------13-----13-----------------13----------------10------10---|
    -14-----14-------------------14-------------14----------------10----------10-|
    ------15-----------------------15---------15----------------10---------------|
    ---------------------------------15-----15--------------8-12-----------------|
    -----------------------------------17-13-------------------------------------|
    
    ----------------12-13-12-10-----------------------------------------8-12-8---|
    ---------------------------13-12-10--------------------------------8------8--|
    -----------------------------------12-10-9------------------------9----------|
    -10--------10-----------------------------12-10-9---------------10-----------|
    ---12-8-12---------------------------------------12-10-8------10-------------|
    ----------------------------------------------------------8-12---------------|
    
    --15-8------------/20-15--------------15-12-----------12-8-------------------|
    ------8-----------------17-----------------13-------------8------------------|
    -------9------------------17-----------------12------------9---------------9-|
    --------10------------------17------------------14----------10-----------10--|
    ----------10------------------19-15---------------15----------10-------10----|
    ------------12--------------------------------------------------12-8-12------|
    
    
    --8-12--/13-12-10------------------------------------------------------------|
    -8---------------13-12-10----------------------------------------------------|
    --------------------------12-10-9---------------------7-9-10-9-7-------------|
    ---------------------------------12-10-9--------7-9-10----------10-9-7-9-10--|
    ------------------------------------------7-8-10-----------------------------|
    -----------------------------------------------------------------------------|
    
    --------------------------------------------------10-12-13-12-10-------------|
    --------8-10-12--12-13-12-10-------------10-12-13---------------13-12-10-12--|
    -7-9-10---------------------12-10-9-10-12------------------------------------|
    -----------------------------------------------------------------------------|
    -----------------------------------------------------------------------------|
    -----------------------------------------------------------------------------|
    
    ---10-12---------------------------------------------------------------------|
    -13--------------------------------------------------------------------------|
    -----------------------------------------------------------------------------|
    -----------------------------------------------------------------------------|
    -----------------------------------------------------------------------------|
    -----------------------------------------------------------------------------|
    
                                                            2x
    ----------------17-----------------17------------|-----------------17--|-----|
    17-12------12-17---17-12------12-17---17-12------|-17-13------13-17----|-----|
    -----12--12-------------12--12-------------12----|------14--14---------|-----|
    -------14-----------------14-----------------14--|--------15-----------|-----|
    -------------------------------------------------|---------------------|-----|
    -------------------------------------------------|---------------------|-----|
    
    ---------------------------------------17------------------17----------------|
    -------17-13-----------16-11------11-16----16-11------11-16----16-11---------|
    ------------14--------------14--14--------------14--14--------------14-------|
    --------------15--------------13------------------13------------------13-----|
    -----------------------------------------------------------------------------|
    -----------------------------------------------------------------------------|
    
    -----------------17-----------------17---------------------------------------|
    -17-12------12-17---17-12------12-17-----------------------------------------|
    ------12--12-------------12--12----------------------------------------------|
    --------14-----------------14------------------------------------------------|
    -----------------------------------------------------------------------------|
    -----------------------------------------------------------------------------|
    
    -----------------17-----------------17---------------------------------------|
    -17-12------12-17---17-12------12-17-----------------------------------------|
    ------12--12-------------12--12----------------------------------------------|
    --------14-----------------14------------------------------------------------|
    -----------------------------------------------------------------------------|
    -----------------------------------------------------------------------------|
    
    
    --17-13----------------------------------------------------------------------|
    -------13------13-18----18-13------13-18------18-13------13------------------|
    ---------14--14--------------14--14----------------14--14--------------------|
    -----------15------------------15--------------------15----------------------|
    -----------------------------------------------------------------------------|
    -----------------------------------------------------------------------------|
    
    ---------------------------------------------------------/14-11------------11-|
    -7-4-------4----/10-7---------7---/13-10------------10---------13--------13---|
    ----5-----5----------8-------8----------11--------11-------------14-11-14-----|
    -----7-4-5------------10-7-10-------------13-10-13----------------------------|
    ------------------------------------------------------------------------------|
    ------------------------------------------------------------------------------|
    
    --/17-14------------14----/20-17------------17-------------------------------|
    --------16--------16------------19--------19---------------------------------|
    ----------17-14-17----------------20-17-20-----------------------------------|
    -----------------------------------------------------------------------------|
    -----------------------------------------------------------------------------|
    -----------------------------------------------------------------------------|
    
    -----------------------------------------------------------------------------|
    -----------------------------------------------------------------------------|
    -----9----------------------------7-------------------------7----------------|
    --6-9-9-6-------------7--------4-7-7-4-----------9-------4-7-7-4-------------|
    -7-------7---------4-7-7-4----5-------5-------5-9-9-5---5-------5------------|
    ------------------5-------5------------------7-------7-----------------------|
    
    -----------------------------------------------------------------------------|
    -----------------------------------------------------------------------------|
    -------------------5------------------------5--------------------------------|
    ------5---------2-5-5-2----------7-------2-5-5-2-------------3---------------|
    ---2-5-5-2-----3-------3------4-7-7-4---3-------3--------0-3---3-0-----------|
    --3-------3------------------5-------5------------------1---------1----------|
    
    -------------------------------------------8-12-8----------------------------|
    ------------------------------------------8------8---------------------------|
    -----------------------------------------9--------9--------------------------|
    ------8-------------5------------------10----------10------------------------|
    ---5-8-8-5------2-5--5-2-----------7-10--------------10-7--------------------|
    --6-------6----3--------3---------8----------------------8-------------------|
    
    -------------12-15-12-------------------------15-19-15-----------------------|
    -----------13--------13---------------------17--------17---------------------|
    ---------12------------12-----------------17------------17-------------------|
    -------14----------------14----------14-17----------------17-14--------------|
    --10-15--------------------15-10---15--------------------------15------------|
    -----------------------------------------------------------------------------|
    
                             dive w/bar         w/bar
    -------------15-20~---------------------22b~---------------------------------|
    -----------17----------------------------------------------------------------|
    ---------17------------------------------------------------------------------|
    ----14-17--------------------------------------------------------------------|
    --15-------------------------------------------------------------------------|
    ----------------------------0-----------------------------------------------|
     

    Тональность:

    Нет текста!



    Назад
    Рекомендуем посмотреть другие песни исполнителя «Becker Jason»:

    • Комментарии Facebook ()
    • Комментарии ВКонтакте



    Добавить в Избранное Браузера
    Сохранить здесь Очистить


    x

    0


    +
    -

    +
    -

    -

    Авторизация





    Зарегистрироваться

    M

    Дата и время

    • 22:52:28
       

    Социальные ссылки


    Наши приложения

    • Muzbank App Play Market
    • Muzbank Amazon App