MUZBANK



A Most Complete Bank Of Music Information

МУЗЫКАЛЬНО-ИНФОРМАЦИОННЫЙ БАНК

Поиск по сайту







    BBelle And Sebastian • Im A Cuckoo (аккорды и текст - chords & lyrics)


    267

    Print

    Видео «Im A Cuckoo (Belle And Sebastian)»

    Видео клипы к песне подбираются автоматически сайтом youtube. Возможны некоторые несоответствия клипов песне.

    ↑ Спрятать рекламу ↑



    Download


     
    
    
    Guitar 1
    e---------------------------------------------------------------------
    b-14-14-14-12-11--14-14-14-12-11--11-11-11-9-7-7-7-7-7-9-11-11-11-9--
    g---------------------------------------------------------------------
    d---------------------------------------------------------------------
    a---------------------------------------------------------------------
    e---------------------------------------------------------------------
    
    e-------------------------------------------------------
    b-7-7-7-7-7-9-6-6-6-6-7-4-4-4-2-0-2-2-2---0-2-2-2-7-9-11
    g---------------------------------------3---------------
    d-------------------------------------------------------
    a-------------------------------------------------------
    e-------------------------------------------------------
    
    Guitar 2
    e--------------------------------------------------------------------------
    b-11-11-11-9-7-11-11-11-9-7-7-7-7-6-4-2-2-2-4-6-7-7-7-6-4-2-2-2-2-4-2-2-2-2
    g--------------------------------------------------------------------------
    d--------------------------------------------------------------------------
    a--------------------------------------------------------------------------
    e--------------------------------------------------------------------------
    
    
    
    e-----------------------------------
    b-4-0-0-0--------------------2-4-6--
    g---------3-1-3-3-3---1-3-3-3-------
    d-------------------4---------------
    a-----------------------------------
    e-----------------------------------
    
    
    Tabbed by neil
     

    Тональность:

    Нет текста!



    Назад
    Рекомендуем посмотреть другие песни исполнителя «Belle And Sebastian»:

    • Комментарии Facebook ()
    • Комментарии ВКонтакте



    Добавить в Избранное Браузера
    Сохранить здесь Очистить


    x

    0


    +
    -

    +
    -

    -

    Авторизация





    Зарегистрироваться

    M

    Дата и время

    • 22:59:25
       

    Социальные ссылки


    Наши приложения

    • Muzbank App Play Market
    • Muzbank Amazon App